Song name
# A B C D E F G H I J K L M N O P Q R S T U V W X Y Z

The Call - Bulleya tab

Help us improve GuitareTab! Take a short survey!
This part uses delay:
     E  E  E  Q.     Q       E  E  E  Q.     Q
E||-----------0------L----|-----------0------L----|
B||-----------5------L----|-----------5------L----|
G||-----5-----4------L----|-----7-----4------L----|
D||-----------------------|-----------------------|
A||-----------------------|-----------------------|
D||--3-----L--------------|--5-----L--------------|


  E  E  E  Q.     E  T. T. T    S. Q    E  E  E  Q    T
-----------0------L----------|----------0---------------|
-----------0------L----------|-------------0--L--L----L-|
-----9-----9------L----------|-----9--------------------|
-----------------------------|--------------------------|
------------------------0----|--------------------------|
--7-----L------------7-----L-|--L-----------------------|


  E  E  E  Q.     Q       E  E  E  Q.     Q       E  E  E  Q.     E  T. T. T
-----------0------L----|-----------0------L----|-----------0------L----------|
-----------5------L----|-----------5------L----|-----------0------L----------|
-----5-----4------L----|-----7-----4------L----|-----9-----9------L----------|
-----------------------|-----------------------|-----------------------------|
-----------------------|-----------------------|------------------------0----|
--3-----L--------------|--5-----L--------------|--7-----L------------7-----L-|


  S. Q    E  E  E  Q    T    E  E  E  Q.     Q       E  E  E  Q.     Q
----------0---------------|-----------0------L----|-----------0------L----|
-------------0--L--L----L-|-----------5------L----|-----------5------L----|
-----9--------------------|-----5-----4------L----|-----7-----4------L----|
--------------------------|-----------------------|-----------------------|
--------------------------|-----------------------|-----------------------|
--L-----------------------|--3-----L--------------|--5-----L--------------|


  E  E  E  Q.     E  E     W
-----------0------L-----|-------------------|-------------------|
-----------0------L-----|-------------------|-------------------|
-----9-----9------L-----|-------------------|-------------------|
------------------------|-------------------|-------------------|
------------------------|-------------------|-------------------|
--7-----L---------------|-------------------|-------------------|


This part is clean:

E ---0-----0-|
B -------3---|
G -2---2-----|
D -----------|
A -----------|
D -----------|

E -------0---|
B ---3-----3-|
G -----------|
D -3---3-----|
A -----------|
D -----------|

E -----------|
B -----0-1-0-|
G ---0-------|
D -0---------|
A -----------|
D -----------|

E ---------0-|
B ---1---0---|
G -2---2-----|
D -----------|
A -----------|
D -----------|

E ---0-----3-|
B -------3---|
G -2---2-----|
D -----------|
A -----------|
D -----------|

E -------0---|
B ---3-----3-|
G -----------|
D -3---3-----|
A -----------|
D -----------|

E -----------|
B -----0-1-0-|
G ---0-------|
D -0---------|
A -----------|
D -----------|

E ---------0-|
B -----1-0---|
G ---2-------|
D -0---------|
A -----------|
D -----------|

SOLO 1:

							   V. FAAAAAST
E ---------------------------------------|---------------------------------------|
B -5-3-1-1s3h5-3-1-3s5-5-8-8-8-7-7h8-7-5-|-5-3-1-1s3h5-3-1-0h1-0h1-0h1-----------|
G ---------------------------------------|-----------------------------2~~-2h4h5-|
D ---------------------------------------|---------------------------------------|
A ---------------------------------------|---------------------------------------|
D ---------------------------------------|---------------------------------------|

E ---------------------------------------|---------------------------------------|
B --------------------------------12~-12~|-12h13-12h13p12h13p12h13p12h13p12h13p12|
G -4h5h7-5h7h9-7h9-10-9-10-9-10p9--------|---------------------------------------|
D ---------------------------------------|---------------------------------------|
A ---------------------------------------|---------------------------------------|
D ---------------------------------------|---------------------------------------|

   TREMELO PICKIN'				HAMMER FAST
E ----------------------------------------|-----------------------------------8~-|
B -h13p12h13p13h12-12h13-15-13-12-13-12h13|-17~-12h13h15h17-17p15-15-13h15-12----|
G ----------------------------------------|--------------------------------------|
D ----------------------------------------|--------------------------------------|
A ----------------------------------------|--------------------------------------|
D ----------------------------------------|--------------------------------------|

   DO THIS FAAAAST               ---------TREMELO PICKIN------------------------| THIS PULL IS A STOCATTO
E -7h8-7h8-7h8-8p7-7\5-5-5-5\3-5-3-0-1-0-|-0-0-0-3-0-0-0-5-0-0-0-7-0-3-3-3-3p0--|
B ---------------------------------------|--------------------------------------|
G ---------------------------------------|--------------------------------------|
D ---------------------------------------|--------------------------------------|
A ---------------------------------------|--------------------------------------|
D ---------------------------------------|--------------------------------------|

   TRILL-------------------------------------------------------------------------|
E -0-1-3-1-3-5-3-5-7-5-7-8-7-8-10-8-10-12-10-12-13-12-13-15-13-15-17-15-17-17b20-|
B -------------------------------------------------------------------------------|
G -------------------------------------------------------------------------------|
D -------------------------------------------------------------------------------|
A -------------------------------------------------------------------------------|
D -------------------------------------------------------------------------------|


Solo 2:

E -0h1t3-0h1t5-0h1t3-0h1t5-0h1t3---0h1t3-0h1t5-0h1t3-0h1t5-keep the 0h1 in and tap between-5-7-8-10-12-13-15-17-|
B --------------------------------------------------------------------------------------------------------------|
G --------------------------------------------------------------------------------------------------------------|
D --------------------------------------------------------------------------------------------------------------|
A --------------------------------------------------------------------------------------------------------------|
D --------------------------------------------------------------------------------------------------------------|

                                  TRILL-------------------------------------------------------------------------|
E -/17-17-17-17-17-15-15-13-12-13-0-1-3-1-3-5-3-5-7-5-7-8-7-8-10-8-10-12-10-12-13-12-13-15-13-15-17-15-17-17b20-|
B --------------------------------------------------------------------------------------------------------------|
G --------------------------------------------------------------------------------------------------------------|
D --------------------------------------------------------------------------------------------------------------|
A --------------------------------------------------------------------------------------------------------------|
D --------------------------------------------------------------------------------------------------------------|

E -15-17b20-15-17b20-15-13-12h13p12h13p12h13-12-12p10-10p8p7-7h8p7h8p7-7h8t10-7h8t12-7h8t10-7h8t12-7h8t13-7h8t12-|
B ---------------------------------------------------------------------------------------------------------------|
G ---------------------------------------------------------------------------------------------------------------|
D ---------------------------------------------------------------------------------------------------------------|
A ---------------------------------------------------------------------------------------------------------------|
D ---------------------------------------------------------------------------------------------------------------|


Tablature Legend
----------------
L - tied note
x - dead note
g - grace note
(n) - ghost note
> - accentuded note
NH - natural harmonic
AH - artificial harmonic
TH - tapped harmonic
SH - semi harmonic
PH - pitch harmonic
h - hammer on
p - pull off
b - bend
br - bendRelease
pb - preBend
pbr - preBendRelease
brb - bendReleaseBend
\n/ - tremolo bar dip
\n - tremolo bar dive
-/n - tremolo bar Release up
/n\ - tremolo bar inverted dip
/n - tremolo bar return
-\n - tremolo bar Release down
S - shift slide
s - legato slide
/ -  slide into from below or out of upwards
\ -  slide into from above or out of downwards
~ - vibrato
W - wide vibrato
tr - trill
TP - tremolo picking
T - tapping
S - slap
P - pop
< - fade in
^ - brush up
v - brush down

You may disagree with some parts of the intro even though most i beleive is right...
well... if u disagree just comment.
Related for Bulleya tab