Song name
# A B C D E F G H I J K L M N O P Q R S T U V W X Y Z

The Call - Jilawatan tab

JILAWATAN

INTRO:
	Part 1:
   GUITAR 1:

   E --------------------------------------------------------|
   B --------------------------------------------------------|
   G --------------------------------------------------------|
   D ------------------------3--3------------------------3-3-|
   A --------3----5-5---3----3--3--------3----5-5---3----1-1-|
   D -0--0-0----0-----0----0-3--3-0--0-0----0-----0----0-3-3-|

	Part 2:
   GUITAR 1:

   E ----------------------------------------------------------|
   B ----------------------------------------------------------|
   G ----------------------------------------------------------|
   D ------------------------3--3------------------------3-3-3-|
   A --------3----5-5---3----3--3--------3----5-5---3----1-1-1-|
   D -0--0-0----0-----0----0-3--3-0--0-0----0-----0----0-3-3-3-|

	Part 3:
   GUITAR 1:

   E ---------------------------------------------------------|
   B ---------------------------------------------------------|
   G ---------------------------------------------------------|
   D ------------------------3-3-3------------------------3-3-|
   A --------3----5-5---3----3-3-3--------3----5-5---3----1-1-|
   D -0--0-0----0-----0----0-3-3-3-0--0-0----0-----0----0-3-3-|

   GUITAR 2:

   E ---------------------------------------------------------|
   B ---------------------------------------------------------|
   G ---------------------------------------------------------|
   D -0----------------------3-3-3-0----------------------3-3-|
   A -0----------------------3-3-3-0----------------------1-1-|
   D -0----------------------3-3-3-0----------------------3-3-|

	Part 4:
   GUITAR 1:

   E -----------------------------------------------------------|
   B -----------------------------------------------------------|
   G -----------------------------------------------------------|
   D ------------------------3-3-3------------------------1-1-1-|
   A --------3----5-5---3----3-3-3--------3----5-5---3----1-1-1-|
   D -0--0-0----0-----0----0-3-3-3-0--0-0----0-----0----0-1-1-1-|

   GUITAR 2:

   E -----------------------------------------------------------|
   B -----------------------------------------------------------|
   G -----------------------------------------------------------|
   D -0----------------------3-3-3-0--------------------0-1-1-1-|
   A -0- --------------------3-3-3-0--------------------0-1-1-1-|
   D -0----------------------3-3-3-0--------------------0-1-1-1-|


VERSE:

	Part 1:
   GUITAR 1:

   e -------------------------------------------------------|
   B -------------------------------------------------------|
   G -------------------------------------------------------|
   D -----------------3-3-3-3-----------------3-3-3-3-------|
   A -5-5-5-3-5-5-5-3---------5-5-5-3-5-5-5-3---------------|
   D -------------------------------------------------------|

	Part 2:
   GUITAR 1:

   e -------------------------------------------------------|
   B -------------------------------------------------------|
   G -------------------------------------------------------|
   D -----------------3-3-3-3-----------------1-1-1-1-------|
   A -5-5-5-3-5-5-5-3---------5-5-5-3-5-5-5-3---------------|
   D -------------------------------------------------------|

	Part 3:
   GUITAR 1:

   e -------------------------------------------------------|
   B -------------------------------------------------------|
   G -------------------------------------------------------|
   D -----------------3-3-3-3-----------------1-1-1-1-------|
   A -5-5-5-3-5-5-5-3---------5-5-5-3-5-5-5-3---------------|
   D -------------------------------------------------------|

   GUITAR 2:

   E -------------------------------------------------------|
   B -------------------------------------------------------|
   G --------------------------7----------------------------|
   D -0------------------------7----------------------------|
   A -0------------------------5----------------------------|
   D -0-----------------------------------------------------|

	Part 4:
   GUITAR 1:

   e -------------------------------------------------------|
   B -------------------------------------------------------|
   G -------------------------------------------------------|
   D -----------------3-3-3-3-----------------1-1-1-1-------|
   A -5-5-5-3-5-5-5-3---------5-5-5-3-5-5-5-3---------------|
   D -------------------------------------------------------|

   GUITAR 2:

   E ---------------------------------------------------|
   B ---------------------------------15----15----15----|
   G --------------------------12--12----12----12----12-|
   D -0------------------------12-----------------------|
   A -0------------------------10-----------------------|
   D -0-------------------------------------------------|

PRE-CHORUS:

	Part 1:
   GUITAR 1:

   E ----------------------------------------------------|
   B ----------------------------------------------------|
   G ----------------------------------------------------|
   D -3--2--0-----0--------------------------------------|
   A -3--2--0-----0--------------------------------------|
   D -3--2--0-----0--------------------------------------|

   GUITAR 2:

   E ----------------------------------------------------|
   B ----------------------------------------------------|
   G -------------5/7--7-7--7/14-14-14-14-14-14-14-14-14-|
   D ----------------------------------------------------|
   A -------------3/5--5-5--5/12-12-12-12-12-12-12-12-12-|
   D ----------------------------------------------------|

	Part 2:
   GUITAR 1:

   E ----------------------------------------------------|
   B ----------------------------------------------------|
   G ----------------------------------------------------|
   D -3--2--0-----0--------------------------------------|
   A -3--2--0-----0--------------------------------------|
   D -3--2--0-----0--------------------------------------|

   GUITAR 2:

   E ----------------------------------------------------|
   B ----------------------------------------------------|
   G -------------5/7--7-7--7/12-12-12-12-12-12-12-12-12-|
   D ----------------------------------------------------|
   A -------------3/5--5-5--5/10-10-10-10-10-10-10-10-10-|
   D ----------------------------------------------------|

CHORUS:

	Part 1 X2:
   GUITAR 1&2:

   E --------------------------------------------|
   B --------------------------------------------|
   G --------------------------------------------|
   D -0---------3---3/5-5-------0----------5-3-0-|
   A -0---------3---3/5-5-------0----------5-3-0-|
   D -0---------3---3/5-5-------0----------5-3-0-|

	Part 2:
   GUITAR 2:

   E ----------------------|
   B ----------------------|
   G ----------------------|
   D -12-13-12-13-12-13-12-|
   A ----------------------|
   D ----------------------|

REPEAT VERSE, PRE-CHORUS AND CHORUS

INTERLUDE:

RHYTHMS BY GUITAR 2 SAME AS VERSE BY GUITAR 1

FILLERS BY GUITAR 1 (VERRY VERRY UNSURE):

   E -------------------------------------------|
   B -------10-------10-------10-------10-------|
   G -12b14----12p14----12p14----12p14----12p14-|
   D -------------------------------------------|
   A -------------------------------------------|
   D -------------------------------------------|
RHYTHMS START HERE

   E -----------------|
   B -----------------|
   G -7~~~~~~~~~~~~~~-
   D -----------------|
   A -----------------|
   D -----------------|

   E ---------------|
   B ---------------|
   G -5h7h8~~~~~~~~-
   D ---------------|
   A ---------------|
   D ---------------|
VOCALS START AT h8

   E -----------------|
   B -----------------|
   G -7~~~~~~~~~~~~~~-
   D -----------------|
   A -----------------|
   D -----------------|

   E -------------------------------------------|
   B -------10-------10-------10-------10-------|
   G -12b14----12p14----12p14----12p14----12p14-|
   D -------------------------------------------|
   A -------------------------------------------|
   D -------------------------------------------|
DRUMS START AT FIRST 10

   E -------------------
   B -10~~~~~~~~~~~~~~~-
   G -12b14~~~~~~~~~~~~-
   D -------------------|
   A -------------------|
   D -------------------|
MOVING SCRAPING FINGERS ACROSS STRINGS HENCEFORTH FOR SOME TIME

   E -----10-8-10-|
   B -6h8---------|
   G -------------|
   D -------------|
   A -------------|
   D -------------|
WHAMMY BAR STUFF STARTS HERE

   E ---------------------------------------|
   B -10~~~\9/10\9/11~~~~~-10-11-15-10~~~~~-|
   G ---------------------------------------|
   D ---------------------------------------|
   A ---------------------------------------|
   D ---------------------------------------|
WIERDO REPEATING THINGY IN THE BACK:

   E ----------------|
   B -10-15-10-15-10-|
   G ----------------|
   D ----------------|
   A ----------------|
   D ----------------|
REPEAT ABOVE RIFF A FEW TIMES

   E ---------------------|
   B -10~~~~-8~~~~-10~~~~-|
   G ---------------------|
   D ---------------------|
   A ---------------------|
   D ---------------------|
END OF WIERDO INTERVAL

REPEAT CHORUS

THANKS TO AHMED NADEEM LIK ALWAYZ

TABBD BY LIMAJDAAS
Tap to rate this tab
# A B C D E F G H I J K L M N O P Q R S T U V W X Y Z