Guitaretab - guitar tabs
Song name
# A B C D E F G H I J K L M N O P Q R S T U V W X Y Z

The Call - Pukaar tab

Here are the actual tabs of Pukaar

Tabbed by Zohaib Amjad (fLaShEr)

Tuning: Drop D (DADGBe)
4/4


Intro:
e-|--------------------------------------|
B-|--------------------------------------|
G-|-12--12--12-12-12--7--7-7--7-7-7------|
D-|-10--10--10-10-10--5--5-5--5-5-5------|
A-|-10--10--10-10-10--5--5-5--5-5-5------|
D-|-10--10--10-10-10--5--5-5--5-5-5------|

e-|--------------------------------------|
B-|--------------------------------------|
G-|-9--9--9-9-9--5--5-5--5-5-5-----------|
D-|-7--7--7-7-7--3--3-3--3-3-3-----------|
A-|-7--7--7-7-7--3--3-3--3-3-3-----------|
D-|-7--7--7-7-7--3--3-3--3-3-3-----------|

e-|--------------------------------------|
B-|--------------------------------------|
G-|-12--12--12-12-12--7--7-7--7-7-7--9---|
D-|-10--10--10-10-10--5--5-5--5-5-5--7---|
A-|-10--10--10-10-10--5--5-5--5-5-5--7---|
D-|-10--10--10-10-10--5--5-5--5-5-5--7---|
End of Intro


In rastoon pe chal ke
In aatishoon pe jal ke
Kabhi ghiray, Kabhi bahay
e-|--------------------------------------|
B-|--------------------------------------|
G-|--------------------------------------|
D-|-7-7---3-3----------------------------|
A-|-7-7---3-3----------------------------|
D-|-7-7---3-3----------------------------| X4


INTRO CHORDS WITH PALM MUTING
Khawabon ke toofaan se guzar ke
Parbatoon ke aasmaan par utar ke
Kabhi ghiray, Kabhi bahay


Yehi Pukaar hai, Yehi Aag hai
Yehi Pukaar hai, Yehi Aag hai
e-|--------------------------------------|
B-|--------------------------------------|
G-|--------------------------------------|
D-|-7-7--5--3----------------------------|
A-|-7-7--5--3----------------------------|
D-|-7-7--5--3----------------------------| X4


Chorro in zanjeeron ko
In zanjeeron ko
Chorro is aag ko 
Iss aag ko...
e-|--------------------------------------|
B-|--------------------------------------|
G-|--------------------------------------|
D-|-2--2-2-2-2-2--3--3-3--5--5-5-5-------|
A-|-2--2-2-2-2-2--3--3-3--5--5-5-5-------|
D-|-2--2-2-2-2-2--3--3-3--5--5-5-5-------|

e-|--------------------------------------|
B-|--------------------------------------|
G-|--------------------------------------|
D-|-7--7-7-7-7-7--5--5-5--10--10-10-10---|
A-|-7--7-7-7-7-7--5--5-5--10--10-10-10---|
D-|-7--7-7-7-7-7--5--5-5--10--10-10-10---| X2


SOLO
e-|--------------------------------------|
B-|--------------------------------------|
G-|-12--12-12-12-10-9-7--7-7-7--7-9-7-9--|
D-|--------------------------------------|
A-|--------------------------------------|
D-|--------------------------------------|

e-|--------------------------------------|
B-|--------------------------------------|
G-|-9--9-9-9-12-9-5--5-5-5-5-5-----------|
D-|--------------------------------------|
A-|--------------------------------------|
D-|--------------------------------------|

e-|--------------------------------------|
B-|--------------------------------------|
G-|-12--12-12-12-10-9-7--7-7-7--7-9-7-9--|
D-|--------------------------------------|
A-|--------------------------------------|
D-|--------------------------------------|
[ Tab from: http://www.guitaretab.com/t/the-call/66600.html ]
e-|--------------------------------------|
B-|---10-10--10-12--12-12\14--14-14------|
G-|-9------------------------------------|
D-|--------------------------------------|
A-|--------------------------------------|
D-|--------------------------------------|


Iss bay hassi pe ghir kay
Iss bay bassi pe ghir kay
Kabhi ghiray, Kabhi bahay
e-|--------------------------------------|
B-|--------------------------------------|
G-|--------------------------------------|
D-|-7-7---3-3----------------------------|
A-|-7-7---3-3----------------------------|
D-|-7-7---3-3----------------------------| X4


INTRO CHORDS WITH PALM MUTING
Nafraton ke makaan se guzar ke
Chahaton ke sehra se guzar ke
Kabhi ghiray, Kabhi bahay...


Yehi Pukaar hai, Yehi Aag hai
Yehi Pukaar hai, Yehi Aag hai
e-|--------------------------------------|
B-|--------------------------------------|
G-|--------------------------------------|
D-|-7-7--5--3----------------------------|
A-|-7-7--5--3----------------------------|
D-|-7-7--5--3----------------------------| X4


Chorro in zanjeeron ko
In zanjeeron ko
Chorro is aag ko 
Iss aag ko...
e-|--------------------------------------|
B-|--------------------------------------|
G-|--------------------------------------|
D-|-2--2-2-2-2-2--3--3-3--5--5-5-5-------|
A-|-2--2-2-2-2-2--3--3-3--5--5-5-5-------|
D-|-2--2-2-2-2-2--3--3-3--5--5-5-5-------|

e-|--------------------------------------|
B-|--------------------------------------|
G-|--------------------------------------|
D-|-7--7-7-7-7-7--5--5-5--10--10-10-10---|
A-|-7--7-7-7-7-7--5--5-5--10--10-10-10---|
D-|-7--7-7-7-7-7--5--5-5--10--10-10-10---| X2


INTERLUDE (PICKING ON ACOUSTIC GUITAR)
e-|---------------------0----------------|
B-|-----0--------------------------------|
G-|---5---5-----------9---9--------------|
D-|---------7---------------10-----------|
A-|-----------7----------------10--------|
D-|-7--------------10--------------------|

e-|-----5-------------0--------0---------|
B-|-------3-------------0--------0-------|
G-|---2-----2----------------------------|
D-|-0---------0-----3--------5-----------| 
A-|--------------------------------------|
D-|---------------3--------5-------------| X3
2nd & 3rd time with 
Caltay Rahein Gay, Chaltey Rahein Gay


SAME CHORDS AS ABOVE WITH PALM MUTING
Jaltay rahen ge ham kab tak
Chaltay rahain ge ham tab tak
Aaj ham aik insaan banatay hain
Nai roshi, nai manzil patay hain


e-|-----------------------------------------|
B-|-----------------------------------------|
G-|-----------------------------------------|
D-|-----------------------------------------|
A-|-----------------------------------------|
D-|-7h9-9-9-9-7-7h9-9-9-9-7-7h9-9-9-9-7-0-3-| X4


e-|-----------------------------------------|
B-|-----------------------------------------|
G-|-----------------------------------------|
D-|-7h9-9-9-9-7-7h9-9-9-9-7-7h9-9-9-9-7-0-3-|
A-|-7h9-9-9-9-7-7h9-9-9-9-7-7h9-9-9-9-7-0-3-|
D-|-7h9-9-9-9-7-7h9-9-9-9-7-7h9-9-9-9-7-0-3-| X4
SCREAM


e-|--------------------------------------|
B-|--------------------------------------|
G-|--------------------------------------|
D-|-7-7--7-7--7-7--5--5--5---------------|
A-|-7-7--7-7--7-7--5--5--5---------------|
D-|-7-7--7-7--7-7--5--5--5---------------| X4
Yehi Pukaar hai, Yehi Aag hai
Yehi Pukaar hai, Yehi Aag hai
Related for Pukaar tab
Advertisement will be closed in 10 seconds