Song name
# A B C D E F G H I J K L M N O P Q R S T U V W X Y Z

The Call - Soch tab

SOCH BY CALL
TABBED BY: AHMED NADEEM
COMMENTS TO : AHM3D_NAD33M@HOTMAIL.COM 

C  (X32010)
g  (320033)
f  (133211)
am (X02210)

_____________________

intro: 
rhythm  is clean
lead with effects

     C               F    G
e[--------------------------------------------------]
B[-8-------8-------8--------------------------------]
G[---7-4-5---7-4-5---7-4-5-7-7s9-7------------------]
D[--------------------------------------------------]
A[--------------------------------------------------]
E[--------------------------------------------------]
     C                       F      G 
e[-------------------------------------------------------]
B[-8-------8---------------8-----------------------------]
G[---7-4-5---7-4-5h7-5h7-5---7-4-5--7s13-12-10h12-10h12--]
D[-------------------------------------------------------]
A[-------------------------------------------------------]
E[-------------------------------------------------------]

VERSE 1

C                   F              G
RUK GAYE PHIR MERAY QADAM IS SOCH MEIN
C                              F         G   
PEECHAY JAU CHOR AAYA HOON WOH BHEE THAI MERAY
C                            F          G
NIKLEY JAU IS HAWAS MEIN YEH KEH PAYEN GAI
F         G          F           G
SAB KUCH LUTAYE JAU APNEY THAI MERAY
   C
RUK GAYE

SOLO 1:
   C                F              g  
e[--------------------------------------------------]
B[--------------------------------------------------]
G[-7-7-9-7-12-9-7-5-5s9-9h10p9-7-5-5h7-7s0----------]
D[--------------------------------------------------]
A[--------------------------------------------------]
E[--------------------------------------------------]
TWICe

VERSE 2

C                               F         G
SHAREEK-E-GHAM BHEE HAI MERA AUR TUM BHEE MERAY
C                             F         G
SAATH KYUN PHIR NA CHALEY THAI TUM PHIR MERAY
C                               F        G
NIKLEY JAU IS HAWAS MEIN YEH KEH PAYEN GAI
F       G       F              G
FASLA THORA AUR MANZIL AAGEY MERAY

CHORUS
Am      G         F         G 
ANDHERA BAN KAI UFAQ KAI UJAALON MEIN
Am          G           F               G 
ZAMEEN KEE THAKAN KAU KYUN IS TARAH CHUPAOON MEIN

BRIDGE!!!!

e[------6----------8----------10------------]
B[------------------------------------------]
G[--------8----------10----------12---------]
D[----8---------10----------12--------------]
A[--6---------8----------10-----------------]
E[------------------------------------------]
TWICE!

IK SAAYA AA GAYA HAI
e[------6----------8----------10------------]
B[------------------------------------------]
G[--------8----------10----------12---------]
D[----8---------10----------12--------------]
A[--6---------8----------10-----------------]
E[------------------------------------------]
IK SAAYA RUK GAYA HAI
e[------6----------8----------10------------]
B[------------------------------------------]
G[--------8----------10----------12---------]
D[----8---------10----------12--------------]
A[--6---------8----------10-----------------]
E[------------------------------------------]
IK SAAYA APNEY SAATH LAI KAR MUJHE
e[------6----------8--------6---------8------]
B[-------------------------------------------]
G[--------8----------10-------8---------10---]
D[----8---------10--------8--------10--------]
A[--6---------8---------6--------8-----------]
E[-------------------------------------------]

CHAL PARA HAI
                         [distortion begins]
e[------3----------3------------------------]
B[------------------------------------------]
G[--------5----------5---5-5---5-5---5-5----]
D[----5---------5--------5-5---5-5---5-5----]
A[--3---------3----------3-3---3-3---3-3----]
E[------------------------------------------]

SOLO 2

   D#5
e[--------------------------------------------------]
B[--------------------------------------------------]
G[-12-10------------12-10-------------12-10---------]
D[-------12-10------------12-10-------------12------]
A[-------------13-12------------13-12---------------]
E[--------------------------------------------------]
   F5
e[--------------------------------------------------]
B[--------------------------------------------------]
G[-12-10------------12-10-------------12-10---------]
D[-------12-10------------12-10-------------12------]
A[-------------13-12------------13-12---------------]
E[--------------------------------------------------]
   C5
e[--------------------------------------------------]
B[--------------------------------------------------]
G[-12-10------------12-10-------------12-10---------]
D[-------12-10------------12-10-------------12------]
A[-------------13-12------------13-12---------------]
E[--------------------------------------------------]

   D#5
e[--------------------------------------------------]
B[--------------------------------------------------]
G[--------------------------------------------------]
D[-10h12----10h12----10h12----10h12-----------------]
A[--------------------------------------------------]
E[--------------------------------------------------]
   F5
e[--------------------------------------------------]
B[--------------------------------------------------]
G[--------------------------------------------------]
D[-10h12----10h12----10h12----10h12-----------------]
A[--------------------------------------------------]
E[--------------------------------------------------]
   C5
e[--------------------------------------------------]
B[--------------------------------------------------]
G[--------------------------------------------------]
D[-10h12----10h12----10h12----10h12-----------------]
A[--------------------------------------------------]
E[--------------------------------------------------]

THEN CHORUS WITH CLEAN TONE
Am      G         F         G 
ANDHERA BAN KAI UFAQ KAI UJAALON MEIN
Am          G           F               G 
ZAMEEN KEE THAKAN KAU KYUN IS TARAH CHUPAOON MEIN

TEHN CHORUS WITH DISToRTION 
A5      G5        F5        G5 
ANDHERA BAN KAI UFAQ KAI UJAALON MEIN
A5          G5          F5             G5 
ZAMEEN KEE THAKAN KAU KYUN IS TARAH CHUPAOON MEIN

-end-
Tap to rate this tab
 
# A B C D E F G H I J K L M N O P Q R S T U V W X Y Z