Song name
# A B C D E F G H I J K L M N O P Q R S T U V W X Y Z

The Call - Sab Bhula Kai tab

song: sub bhula kay
band: call

tabbed by : hamood ur rehman
tunning : standard
There are two acoustic guitar riffs in the intro and electric guitar lead
INTRO>>>>
guitar 1
e/---------------0--------5--------4-------7-------------------/
B/---------0-------0--------0-------0-------0------------------/
G/-----6-----6--------6--------6------6------6-----------------/
D/-7-----------------------------------------------------------/
A/-------------------------------------------------------------/
E/-------------------------------------------------------------/

guitar 1
e/-------------7-----5-----4------0----------------------/
B/--------0-----0-----0-----0------0---------------------/
G/----6----6-----6-----6-----6------6--------------------/
D/-7-----------------------------------------------------/
A/-------------------------------------------------------/
E/-------------------------------------------------------/


guitar 1
e/--0--------------------------------------------------/
B/--0--------0-----------------0-----------------------/
G/--6---6------6-----6----6-----6----------------------/
D/--7-----7-------7-----7---7-----7--------------------/
A/--0--------------------------------------------------/
E/-----------------------------------------------------/

guitar 1
e/-----------------------------------------------------/
B/-------------0---------0-----------------------------/
G/-----6---------6--------6----------------------------/
D/--x--------x-------------x----------x--------x-------/
A/-7------7--------7---------7-------------------------/
E/-----------------------------------------------------/
(x means dont touch the D string)

guitar 1
e/------------------------------------------------------/
B/-------------0---------0------------------------------/
G/-----6---------6--------6-----------------------------/
D/--x--------x-------------x----------x--------x--------/
A/-5------5--------5---------5--------------------------/
E/------------------------------------------------------/
(x means dont touch the D string)


guitar 1
e/---------------------------------------------------/
B/-------------0---------0---------------------------/
G/-----6---------6--------6--------------------------/
D/--x--------x-------------x----------x--------------/
A/-4------4--------4---------4-----------------------/
E/---------------------------------------------------/
(x means dont touch the D string)


electric guitar (comes between the acoustic clean play)
e/----------------------------------------------------------/
B/-10/9--10--14--12--10-----9s10s12---9s10s12---10---9-10---/
G/----------------------------------------------------------/
D/----------------------------------------------------------/
A/----------------------------------------------------------/
E/----------------------------------------------------------/

electric guitar (comes between the acoustic clean play)
e/--------------------------------------------------------------------/
B/--9-10-9-10-9-10-9--------------------------------------------------/
G/-----------------------11---9---------------------------------------/
D/--------------------------------------------------------------------/
A/--------------------------------------------------------------------/
E/--------------------------------------------------------------------/

the lyrics go like this
open chords used  D, C, G , A


 use D as (x00230)     teri khamoshi
       C(032010)          yoon main......
       G(320033)         woh batain hain.......
   A as(x02220)         chupeeen
so on...................u can catch on the rest of it by your self
just for the chorous try my technique for a nice unplugged
version
play em open, no barrs
(099700)  sub bhula

(077600) kay

(055400) phir bhi


(077600) chala main
so on.......................................
this will cover up the fill in from the 2nd guitar
its useless so i didnt wrote it  :P
n the solo..........lol u can figure it out ur self
any difficulty or any confusion just let me know
in here for ya      hamoodrehman708@hotmail.com  ;)
Tap to rate this tab
# A B C D E F G H I J K L M N O P Q R S T U V W X Y Z