Song name
# A B C D E F G H I J K L M N O P Q R S T U V W X Y Z

The Call - Kash tab

Hey guys
101% Correct Edition Of kaash Song Chk it out
If u r not feeling good view then Copy it and Paste on Notepad

Kaash By Call
Tabbed By Faiq (dj_hot1@hotmail.com)

Tunning DADGBE

INTRO:
e|---------------------------------------------||---------------------------------------------|
B|-------0----------0---------0---------0------||--------0---------0---------0---------0------|
G|----6----6----6-----6---6-----6---6-----6----||----9-----9---9-----9---9-----9---9-----9----|
D|------6---------6---------6---------6--------||------9---------9---------9---------9--------|
A|--4---------4---------4---------4------------||--7---------7---------7---------7------------|
D|---------------------------------------------||---------------------------------------------|

e|---------------------------------------------||----------------------0-0-0--0-0-0--0--------|
B|-------0----------0---------0---------0------||--------0---------0---0-0-0--0-0-0--0--------|
G|----6----6----6-----6---6-----6---6-----6----||----9-----9---9-----9-9-9-9--9-9-9--9--------|
D|------6---------6---------6---------6--------||------9---------9-----9-9-9--9-9-9--9--------|
A|--4---------4---------4---------4------------||--7---------7---------7-7-7--7-7-7--7--------|
D|---------------------------------------------||---------------------------------------------|


*****************************************************************

e|------------0-----------------0------||------------0-----------------0-----------|
B|-------0------6---------0--------6---||-------0------9---------0--------9--------|
G|----6----6----------6------6---------||----9----9----------9------9--------------|
A
D|------6----6----------6------6-------||------9----9----------9------9------------|
A|--4---------------4------------------||--7---------------7-----------------------|
D|-------------------------------------||------------------------------------------|
	WOH RAASTEY 					GUM NA HOTEY
	HUM SEHRA NA 					BHATAKTEY
	IN SADIYON KAI 					SAFAR MEIN
	US WAQT JAU THEHAR 				JAATEY ( ON JAATEY STRUM x799xx 5 6 times)

e|---------0--------------0-------||----------0----------------0---------------- |
B|-----0-----0-0------0-----0-----||-----0-------0--0-----0------0-------------- |
G|-------4--------------4----4----||--------6----------------6-----6------------ |
D|-----------------------------4--||---------------------------------6--|------- |
A|---2--------------2-------------||---4----------------4---------------|   ---- |
D|--------------------------------||------------------------------------|   ---- |
    KUCH TAU TUM KEH JAATEY		KUCH TAU TUM KEH JAATEY			|
                                        |--------------------------------------- | Riff B
e|---------0--------------0------||----------0----------------0---------|   ---- |
B|-----0-----0-0------0-----0--0-||-----0-------0--0-----0------0-------|   ---- |
G|-------4--------------4--------||--------6----------------9-----9-----|   ---- |
D|-------------------------------||---------------------------------9---|------- |
A|---2--------------2------------||---4----------------7------------------------ |
D|-------------------------------||--------------------------------------------- |
    KUCH TAU TUM KEH JAATEY		KUCH TAU TUM KEH JAATEY


|

|

|

 |

 |

 |
	KABHEE TAU MILO GAI				KABHEE TAU Kahoo GAI	|-----Riff C|

 |

 |

 |

|

|

|
	HAM JAU YUN NA JAATEY				KAASH THEHAR JAATEY

************************************ ^^ Repeat again ********************************************

Riff A:
AAJ BHEE TALAASH HAI
WOH RAASTEY CHALEY THAI JIN PAI
IS TARAH KABHEE YUN SAATH SAATH
HAMESHA US SAFAR MEIN

Riff B:
HAM TUM SAI KEH PAATEY
HAM TUM SAI KEH PAATEY
HAM TUM SAI KEH PAATEY
HAM TUM SAI KEH PAATEY

Riff C:(2x)
KABHEE TAU MILO GAI
KABHEE TAU KAHO GAI
HAM JAU YUN NA JAATEY
KAASH THEHAR JAATEYyyyyyy

then ( haaannnnn part Comes ) Play Riff A On that


AND NOW KICK ASS SOLO COMES IN :D lol

Solo Rhthym
D|--4----7----4----7----9----11----2----11-----9|
A|--4----7----4----7----9----11----2----11-----9|
D|--4----7----4----7----9----11----2----11-----9|


Lead
e|-----------------------------------------------------------12-14-9-9h10-9------|
B|4s11-12-12s14--15--14--14s12--17--14h15--14--12--12--11-12----------------12-12|
G|-------------------------------------------------------------------------------|
D|-------------------------------------------------------------------------------|
A|-------------------------------------------------------------------------------|
D|-------------------------------------------------------------------------------|


e|-------------------------------------------------------------------------------|
B|-5-4-5-5s12-5---4-5-4-5-5s14-12-12--6--7--7s9-9h10-12-10-9-9-9-9---9-7-9-9s12-9|
G|-------------------------------------------------------------------------------|
D|-------------------------------------------------------------------------------|
A|-------------------------------------------------------------------------------|
D|-------------------------------------------------------------------------------|

e|-----------------------------------------|
B|9h10-9-7-7--6-7-7s9-s14-12-9-9h10-9-7-7--|
G|-----------------------------------------|
D|-----------------------------------------|
A|-----------------------------------------|
D|-----------------------------------------|


Play it Real Fast....;)
e|-----------------------------------------------------------------------------------|
B|-7-9-10-9-7-10-7-5-7-5-4-5----4-2-0-2-4-2--4 5 4-5-5s7-5-7-5-7-5-7-5-7-5-7-7s9-----|
G|-----------------------------------------------------------------------------------|
D|-----------------------------------------------------------------------------------|
A|-----------------------------------------------------------------------------------|
D|-----------------------------------------------------------------------------------|


FInal Chorus WITH DISTORTION!

Chords:
C#5  11-11-11xxx
E5   222xxx
B5   999xx
A5   777xx

C#5
kabhie tu milo gey
E5
kabhie tu kaho gey
C#5
hum jo yun na jatay
B5         A5
kash teher jatay
Tap to rate this tab
 
# A B C D E F G H I J K L M N O P Q R S T U V W X Y Z