Song name
# A B C D E F G H I J K L M N O P Q R S T U V W X Y Z

The Call - Bichar Kay Bhee tab

Bichar Kay Bhee by The Call
TAbbed by: Ahmed Nadeem
Tuning: Dropped D

[]-----------------------------------------------------------[]
[]-----------------------------------------------------------[]
[]--------7---5--------------------2h4--4h5---4---2----------[]
[]------5---------9---7----------0------------------0--------[]
[]----5-----------------5------0---------------------0-------[]
[]--5------5----5---5-----5--0--------0-----0---0------------[]

[]-----------------------------------------------------------[]
[]-----------------------------------------------------------[]
[]--------4---2--------------------11h12--9h11---7-5-5h7-----[]
[]------2---------5---4----------0---------------------------[]
[]----2-----------------2------0-----------------------------[]
[]--2-------2---2---2-----2--0----------0------0-------------[]

[]-----------------------------------------------------------[]
[]-----------------------------------------------------------[]
[]--------7---9---7----------------11h12--12h14---12---------[]
[]------5------------5-----------0---------------------0-----[]
[]----5----------------5-------0-------------------------0---[]
[]--5-------5---5---5----5---0----------0-------0----0----0--[]

[]-----------------------------------------------------------[]
[]-----------------------------------------------------------[]
[]--------4---2--------------------11h12--9h11---7-5-5h7-----[]
[]------2---------5---4----------0---------------------------[]
[]----2-----------------2------0-----------------------------[]
[]--2-------2---2---2-----2--0----------0------0--0----------[]
Tap to rate this tab
 
# A B C D E F G H I J K L M N O P Q R S T U V W X Y Z