Song name
# A B C D E F G H I J K L M N O P Q R S T U V W X Y Z

The Call - Wujud tab

Ok I Made this tab as a correction to saad's wujud solo
The Rhythm is just power chords which it goes by not the actual thing

LEAD

e[---------------------------------------------------------------]
B[-/10----1010-1010-1010-10-/13----1313-12----1212----10---------]
G[--12b14-1414-1414-1414-14--15b17-1717-14b16-1616-12-12b14------]
D[---------------------------------------------------------------]
A[---------------------------------------------------------------]
D[---------------------------------------------------------------]
For THE 14TH FRET BEND THE 12TH FRET ON THE THRID STRING AND CONTINUE
TOO, IN ORDER TO MAKE IT SOUNDLIKE THE 14TH FRET

RHYTHM

e[---------------------------------------------------------------]
B[---------------------------------------------------------------]
G[---------------------------------------------------------------]
D[-0----------------------3--------5-----------------------------]
A[-0----------------------3--------5-----------------------------]
D[-0----------------------3--------5-----------------------------]

LEAD

e[--------------------------------------------------------------]
B[-/10----1010-1010-1010-10-/13----13-15----15-15-15-15---------]
G[--12b14-1414-1414-1414-14--15b17-17-17b19-19-19-19-19---------]
D[--------------------------------------------------------------]
A[--------------------------------------------------------------]
D[--------------------------------------------------------------]

RHYTHM

e[---------------------------------------------------------------]
B[---------------------------------------------------------------]
G[---------------------------------------------------------------]
D[-0----------------------3-------5------------------------------]
A[-0----------------------3-------5------------------------------]
D[-0----------------------3-------5------------------------------]

LEAD

e[-15-15-15-17-15-15-15-20-15-15-15-17-15-15-15-20-15-15-15-20---]
B[---------------------------------------------------------------]
G[---------------------------------------------------------------]
D[---------------------------------------------------------------]X3
A[---------------------------------------------------------------]
D[---------------------------------------------------------------]

RHYTHM

e[---------------------------------------------------------------]
B[---------------------------------------------------------------]
G[---------------------------------------------------------------]
D[-0----------------------3--------------5-----------------------]
A[-0-(1st time)-----------3(2nd time)----5-(3rd Time)------------]
D[-0----------------------3--------------5-----------------------]

e[-15-15-15-17-15-15-15-20-15-15-15-22-15-15-15-22-15-15-15-22---]
B[---------------------------------------------------------------]
G[---------------------------------------------------------------]
D[---------------------------------------------------------------]X3
A[---------------------------------------------------------------]
D[---------------------------------------------------------------]
RHYTHM
e[---------------------------------------------------------------]
B[---------------------------------------------------------------]
G[---------------------------------------------------------------]
D[-0-------------------------------------------------------------]
A[-0-------------------------------------------------------------]
D[-0-------------------------------------------------------------]

e[-----------------------------------------------------]
B[-1s6-1s8-1s10-1s13-13-13-1s6-1s8-1s10-1s15-15-15-----]
G[-----------------------------------------------------]
D[-----------------------------------------------------]
A[-----------------------------------------------------]
D[-----------------------------------------------------]
RHYTHM
e[---------------------------------------------------------------]
B[---------------------------------------------------------------]
G[---------------------------------------------------------------]
D[-3-----------------------5-------------------------------------]
A[-3-----------------------5-------------------------------------]
D[-3-----------------------5-------------------------------------]

LEAD

e[-------13-15b16r15-15-13-------------------------13--]
B[-13-15-------------------15-13-15-15-13-15-13-15-----]
G[-----------------------------------------------------]
D[-----------------------------------------------------]
A[-----------------------------------------------------]
D[-----------------------------------------------------]


LEAD

e[-15b16-15b16-15b16-15b16-12--------------------------]
B[-----------------------------------------------------]
G[-----------------------------------------------------]
D[-----------------------------------------------------]
A[-----------------------------------------------------]
D[-----------------------------------------------------]

RHYTHM

e[--------------------------------------------]
B[--------------------------------------------]
G[--------------------------------------------]
D[-0-00-3-0-5-0-6-0-5-5-5-0-00-3-33-5p3-0-----]
A[-0-00-3-0-5-0-6-0-5-5-5-0-00-3-33-5p3-0-----]
D[-0-00-3-0-5-0-6-0-5-5-5-0-00-3-33-5p3-0-----]

LEAD
e[-12s20-12s20-12s20-12s20-12s20-12s20-12s20-12s20-12s20-]
B[-------------------------------------------------------]
G[-------------------------------------------------------]
D[-------------------------------------------------------]
A[-------------------------------------------------------]
D[-------------------------------------------------------]

e[-12s22-22-22-22-22-22-22-22----------------------------]
B[-------------------------------------------------------]
G[-------------------------------------------------------]
D[-------------------------------------------------------]
A[-------------------------------------------------------]
D[-------------------------------------------------------]

RHYTHM

e[---------------------------------------------------------------]
B[---------------------------------------------------------------]
G[---------------------------------------------------------------]
D[-3-----------------------5-------------------------------------]
A[-3-----------------------5-------------------------------------]
D[-3-----------------------5-------------------------------------]

FOR THE REST REFER TO LIMAJDAAS TAB
AND THE RHYTHM OF THAT PART IS:

e[--------------------------------------------]
B[--------------------------------------------]
G[--------------------------------------------]
D[-0-00-3-0-5-0-6-0-5-5-5-0-00-3-33-5p3-0-----]
A[-0-00-3-0-5-0-6-0-5-5-5-0-00-3-33-5p3-0-----]
D[-0-00-3-0-5-0-6-0-5-5-5-0-00-3-33-5p3-0-----]

-ahmed nadeem- 
-if u copy this tab and say ist urs FU-
Tap to rate this tab
# A B C D E F G H I J K L M N O P Q R S T U V W X Y Z