Song name
# A B C D E F G H I J K L M N O P Q R S T U V W X Y Z

The Call - Kuch Naheen tab

BENDS BEFORE INTRO:

E -------|
B -14----|
G -16b18- JUST SCREW ROUND WID DA TREMELO BAR...
D -------|
A -------|
D -------|

INTRO :

REPEAT X3:
E ---------------------|
B ---------------------|
G ---------------------|
D -2--2-2--4--4-4-4--4-|
A -2--2-2--4--4-4-4--4-|
D -2--2-2--4--4-4-4--4-|

E ---------------------------|
B ---------------------------|
G ---------------------------|
D -2--2-2--0--0-0--0-0-0-0-0-|
A -2--2-2--0--0-0--0-0-0-0-0-|
D -2--2-2--0--0-0--0-0-0-0-0-|

E ---------------------|
B ---------------------|
G ---------------------|
D -2--2-2--4--4-4-4--4-|
A -2--2-2--4--4-4-4--4-|
D -2--2-2--4--4-4-4--4-|

E --------------------|
B --------------------|
G --------------------|
D -2--2-2--4--5-5-5-5-|
A -2--2-2--4--5-5-5-5-|
D -2--2-2--4--5-5-5-5-|

E ---------------------|
B ---------------------|
G ---------------------|
D -2--2-2--4--4-4-4--4-|
A -2--2-2--4--4-4-4--4-|
D -2--2-2--4--4-4-4--4-|

E ---------------------------|
B ---------------------------|
G ---------------------------|
D -2--2-2--0--0-0--0-0-0-0-0-|
A -2--2-2--0--0-0--0-0-0-0-0-|
D -2--2-2--0--0-0--0-0-0-0-0-|

VERSE:

2 RIFFS REPEATED:

RIFF 1 (Not Too Sure Bout Tis'):

X MEANS MUTE THAT FRET HEAVILY WID PALM

E --------------------------------|
B --------------------------------|
G --------------------------------|
D ------------------------------5-|
A -4X-2X---2X-4X--2X-4X--4X-4X--5-|
D --------------------------------|

RIFF 2:

E ---------------------------|
B -0h1h3h5t7-0h1h3h5t7-0h1t7-|
G ---------------------------|
D ---------------------------|
A ---------------------------|
D ---------------------------|

CHORUS

E -----------------------------------------------------------------------|
B -----------------------------------------------------------------------|
G -----------------------------------------------------------------------|
D -2--2-2--2--2-2-2/-5--5-5--5--5-5-5-4--4-4--4--4-4-4--4--4-4--4--4-4-4-|
A -2--2-2--2--2-2-2/-5--5-5--5--5-5-5-4--4-4--4--4-4-4--4--4-4--4--4-4-4-|
D -2--2-2--2--2-2-2/-5--5-5--5--5-5-5-4--4-4--4--4-4-4--4--4-4--4--4-4-4-|

E --------------------------------------------|
B --------------------------------------------|
G --------------------------------------------|
D -2--2-2--2--2-2-2/-5--5-5--5--5-5-5-4--4--4-|
A -2--2-2--2--2-2-2/-5--5-5--5--5-5-5-4--4--4-|
D -2--2-2--2--2-2-2/-5--5-5--5--5-5-5-4--4--4-|

INTERLUDE:

REPEAT THESE 2 MEASURES TWICE:

E ----------------------------5--5---0-5--------5---0-5-----4X-----0----------0-----|
B -2-7-5-7--------7----5-7----5----5-----5--------5-----5\--5--5-----5----5-----5---|
G ---------6----6---6X-----6--4X--------------6-------------6----6-----6----6-----6-|
D ----------------------------4X------------7---------------4X----------------------|
A ----------------------------4X----------------------------4X----------------------|
D ------------4---------------4X----------------------------4X----------------------|

E -8X------0----------------0------|
B -10-10-----10--------10-----10---|
G -9-----9------9----9----9------9-|
D -8X------------------------------|
A -8X-------------10---------------|
D -8X------------------------------|

JUST STARTING 2ND REPEAT:

E -----
B -----
G -----
D -----
A -----
D -2h4-

NEAR THE END OF 2ND REPEAT:

E ----------------------------|
B ----------------------------|
G ----------------------------|
D -2-4-4h5-5/7-7/9-9/10-10/11-|
A ----------------------------|
D ----------------------------|

SOLO (REGARDS TO AHMED NADEEM):

e -19b21-2121-2121-212121-212121-212121-212121-21r19-|
B ---------------------------------------------------|
G ---------------------------------------------------|
D ---------------------------------------------------|
A ---------------------------------------------------|
D ---------------------------------------------------|

e -19p17-17-17-14-14-14-14h15p14-14-14s12-12s9-9s7-9-10-|
B ------------------------------------------------------|
G ------------------------------------------------------|
D ------------------------------------------------------|
A ------------------------------------------------------|
D ------------------------------------------------------|

e -9h10p9h10p9h10p9h10p9h10p9h10p9h10p9h10p9-
B -------------------------------------------|
G -------------------------------------------|
D -------------------------------------------|
A -------------------------------------------|
D -------------------------------------------|

e --------------------------------------------------|
B -7-9-10-9-10-12-12b14r12 (keep on doing the bend)-|
G --------------------------------------------------|
D --------------------------------------------------|
A --------------------------------------------------|
D --------------------------------------------------|

e -9-9-9h12-14-12-14-12-14-17-14-17-17s19-19-|
B -------------------------------------------|
G -------------------------------------------|
D -------------------------------------------|
A -------------------------------------------|
D -------------------------------------------|

   TREMOLO PICK!
e -------------------------------------------|
B -7-9-10-9-10-12-10-12-14-14-15-17s19-19~~~-|
G -------------------------------------------|
D -------------------------------------------|
A -------------------------------------------|
D -------------------------------------------|

RHYTHM:

e -------------------------------------------|
B -------------------------------------------|
G -------------------------------------------|
D -4--4-4--4-4--4--4-4---7--7-7--7-7--7--9-7-|
A -4--4-4--4-4--4--4-4---7--7-7--7-7--7--9-7-|
D -4--4-4--4-4--4--4-4---7--7-7--7-7--7--9-7-|

e ---------------------------------------------|
B ---------------------------------------------|
G ---------------------------------------------|
D -2--2-2--2-2--2--2-4---5--5-5--5-5--5--5-7-5-|
A -2--2-2--2-2--2--2-4---5--5-5--5-5--5--5-7-5-|
D -2--2-2--2-2--2--2-4---5--5-5--5-5--5--5-7-5-|

e -------------------------------------------|
B -------------------------------------------|
G -------------------------------------------|
D -4--4-4--4-4--4--4-4---7--7-7--7-7--7--9-7-|
A -4--4-4--4-4--4--4-4---7--7-7--7-7--7--9-7-|
D -4--4-4--4-4--4--4-4---7--7-7--7-7--7--9-7-|

e ---------------------------------------------------|
B ---------------------------------------------------|
G ---------------------------------------------------|
D -2--2-2--2-2--2--2-4---5--5-5--5-5--5--5-7-5--4~~~-|
A -2--2-2--2-2--2--2-4---5--5-5--5-5--5--5-7-5--4~~~-|
D -2--2-2--2-2--2--2-4---5--5-5--5-5--5--5-7-5--4~~~-|

REPEAT VERSE WITH RIFF 1

NEAR THE END OF VERSE JUST MUTE AND STRUM (222XXX)

THE END PART:
   LEAD 1------------LEAD 2-----------LEAD 3-----------------------------|
E -----------------------------------------------------------------------|
B -----------------------------------------------------------------------|
G -----------------------------------------------------------------------|
D -2--2-2--2--2-2-2/-5--5-5--5--5-5-5-4--4-4--4--4-4-4--4--4-4--4--4-4-4-|
A -2--2-2--2--2-2-2/-5--5-5--5--5-5-5-4--4-4--4--4-4-4--4--4-4--4--4-4-4-|
D -2--2-2--2--2-2-2/-5--5-5--5--5-5-5-4--4-4--4--4-4-4--4--4-4--4--4-4-4-|

   LEAD 5-------------------------------------------------|
E --------------------------------------------------------|
B --------------------------------------------------------|
G --------------------------------------------------------|
D -2--2-2--2--2-2-2/-5--5-5--5--5-5-5-2--2-2--4--4-4-4--4-|
A -2--2-2--2--2-2-2/-5--5-5--5--5-5-5-2--2-2--4--4-4-4--4-|
D -2--2-2--2--2-2-2/-5--5-5--5--5-5-5-2--2-2--4--4-4-4--4-|

   LEAD 6--------------------------------------------------------------|
E ---------------------------------------------------------------------|
B ---------------------------------------------------------------------|
G ---------------------------------------------------------------------|
D -2--2-2--4--4-4-4--4--2--2-2--4--4-4-4--4--2--2-2--0--0-0--0-0-0-0-0-|
A -2--2-2--4--4-4-4--4--2--2-2--4--4-4-4--4--2--2-2--0--0-0--0-0-0-0-0-|
D -2--2-2--4--4-4-4--4--2--2-2--4--4-4-4--4--2--2-2--0--0-0--0-0-0-0-0-|

  LEAD 7--------------------------------------------------------|
E --------------------------------------------------------------|
B --------------------------------------------------------------|
G --------------------------------------------------------------|
D -2--2-2--4--4-4-4--4--2--2-2--4--5-5-5-5--2--2-2--4--4-4-4--4-|
A -2--2-2--4--4-4-4--4--2--2-2--4--5-5-5-5--2--2-2--4--4-4-4--4-|
D -2--2-2--4--4-4-4--4--2--2-2--4--5-5-5-5--2--2-2--4--4-4-4--4-|

   LEAD 7--------------------------------|
E ---------------------------------------|
B ---------------------------------------|
G ---------------------------------------|
D -2--2-2--0--0-0--0-0-0-0-0--2-2-4~~~~~-|
A -2--2-2--0--0-0--0-0-0-0-0--2-2-4~~~~~-|
D -2--2-2--0--0-0--0-0-0-0-0--2-2-4~~~~~-|

LEAD BHIND THE CHORDS (wah wah):

LEAD 1:

E ---------------|
B -7-8-7---------|
G -------9-11-11-|
D ---------------|
A ---------------|
D ---------------|

LEAD 2:

E -------------------------|
B ---------------------7-7-|
G -11--11-11-12-9--9-9-----|
D -------------------------|
A -------------------------|
D -------------------------|

LEAD 3:

E --------------------------|
B -7-8-7---------8-7--7h8p7-|
G -------9-6-8-9------------|
D --------------------------|
A --------------------------|
D --------------------------|

LEAD 5:

E --------------------------------------------|
B --------------------------------------------|
G -9-9-9-9-9h11-12-12-12-12-12-11-11-11-11-11-|
D --------------------------------------------|
A --------------------------------------------|
D --------------------------------------------|

LEAD 6:

E ---------------------------------------------|
B ---------------------------------------------|
G ---------------------------------------------|
D -9-9-11-11-11-11-9-9-12-12-12-12-9-9-8-8-8-8-|
A ---------------------------------------------|
D ---------------------------------------------|

LEAD 7:

CAN'T FIGURE THIS ONE OUT. I SAY JUST FIGURE OUT THE SCALE AND IMPROVISE
OR JUST MIX LEAD 5 N' 6 AND PLAY THAT....

!LimajDaas!
Tap to rate this tab
 
# A B C D E F G H I J K L M N O P Q R S T U V W X Y Z