Song name
# A B C D E F G H I J K L M N O P Q R S T U V W X Y Z

The Call - Kal Hamara Hai tab

Help us improve GuitareTab! Take a short survey!
OK THIS THING IS PERFECT XCEPT FOR THE PART THAT SAYS NOT SURE.
		       NOT
		       SURE
		       BOUT
		       THIS
e -5-7-3-2-0-2-5p3-5p3-2-0~~---|
B -----------------------------|
G -----------------------------|
D -----------------------------|
A -----------------------------|
E -----------------------------|

e -5-7-3-2-0--------------------------------------------------------------------|
B -----------3-2-3/5-3~-3-3-3-5p3p2-3~-5p3p2-3~-3/7-5-5p3p2-3~-5p3p2-3~-2---2---|
G ------------------------------------------------------------------------4-----|
D ------------------------------------------------------------------------------|
A ------------------------------------------------------------------------------|
E ------------------------------------------------------------------------------|

e -------------------------------------------------|
B -5p3p2-3~-5p3p2-3~-3/7-5~-7-/10-/15-14-10-/5~~---|
G -------------------------------------------------|
D -------------------------------------------------|
A -------------------------------------------------|
E -------------------------------------------------|

!LimajDaas!
Related for Kal Hamara Hai tab