Song name
# A B C D E F G H I J K L M N O P Q R S T U V W X Y Z

The Call - Bichar Ke Bhi tab

Help us improve GuitareTab! Take a short survey!
Here's my version of the intro. Its about 90% correct but some parts don't sound exactly right.
Tabbed By : Ahmed Bin Amir
E-mail : ahmed_binamir@hotmail.com

-----------------------|------------------------------|
-------3---1--0--0-----|------------------------------|
---0---------------0---|---0---0h2p0-0--4h5p4-0h2-4-0-|
-----0---------------0-|-----0------------------------|
-----------------------|------------------------------|
-3-------3---3--3------|-5------0-------0--0-----0----|

-------------------------|-----------------------------------|
-------------------------|-----------------------------------|
---0---4---2---0---0-----|---0----11h12-9s11-9---------------|
-----0---------------0---|-----0---------------12-10-9-------|
-2--------0---0--0-----0-|----------------------------12-10--|
-------------------------|-7---------------------------------|

-----------------------|-------------------------|--------------------------|
-----3---5---3---3-----|--------3h5--5s7--7s8-8--|--------------------------|
--0----------------0---|----0------------------0-|----0---4---2---0---0-----|
----0----------------0-|------0-----------------0|------0---------------0---|
-----------------------|-------------------------|--2--------0---0--0-----0-|
-3-----3---3---3-------|--3--------0----0--------|--------------------------|

------------------------------------|
------------------------------------|
---0---0h2p0-4--5--4--0h2-0---------|
-----0----------------------4-------|
------------------------------------|
-3-------3-----3--3-----------------|
Related for Bichar Ke Bhi tab