Song name
# A B C D E F G H I J K L M N O P Q R S T U V W X Y Z

The Call - Kismat Ka Khel Hai Sara tab

Tabbed by Muhammad Bilal
comments and stuff to: bilal_rockstar@yahoo.com
Well there's not much guitaring in this song, but i am sure u'll enjoy playing it.

_______________________
Intro


Tuning:Standard DADGBe

  [palm-muted]                          
e|--------------|
B|--------------|
G|--------------|
D|-5-4-2-0-2-4--|
A|-5-4-2-0-2-4--|
D|-5-4-2-0-2-4--|

                              [palm-muted]  
e|----------------------------------------------|
B|----------------------------------------------|
G|----------------------------------------------|
D|---2-22-22-2-2-0-00-00-0-0--5-4-2-0-2-4-------|
A|---2-22-22-2-2-0-00-00-0-0--5-4-2-0-2-4-------|
D|---2-22-22-2-2-0-00-00-0-0--5-4-2-0-2-4-------|

                             [palm-muted]  
e|------------------------------------|
B|------------------------------------|
G|------------------------------------|
D|---2-22-22-2-2-0-00-00-0-0--0-00-0--|
A|---2-22-22-2-2-0-00-00-0-0--0-00-0--|
D|---2-22-22-2-2-0-00-00-0-0--0-00-0--|

                              [palm-muted]  
e|----------------------------------------------|
B|----------------------------------------------|
G|----------------------------------------------|
D|---2-22-22-2-2-0-00-00-0-0--5-5-5-7-7-7-------|
A|---2-22-22-2-2-0-00-00-0-0--5-5-5-7-7-7-------|
D|---2-22-22-2-2-0-00-00-0-0--5-5-5-7-7-7-------|

                             [palm-muted]  
e|------------------------------------|
B|------------------------------------|
G|------------------------------------|
D|---2-22-22-2-2-0-00-00-0-0--0-00-0--|
A|---2-22-22-2-2-0-00-00-0-0--0-00-0--|
D|---2-22-22-2-2-0-00-00-0-0--0-00-0--|

do teh 2nd aqnd third "BARS" twice
then verse
all palmuted
e|-----------------------------------------|
B|-----------------------------------------|
G|-------------- X ------------------------|
D|--------5---7- 3 -----------5-7-5--------|
A|-7-77-7---7---------7-77-7-7-7-7---------|
D|-----------------------------------------|
then prechorus

e|--------------------------------------|
B|--------------------------------------|
G|-9--------7--------9---------7--------|
D|-9-- X8 --7-- X8 --9-- X8 ---7-- X8 --|
A|-7--------5--------7---------5--------|
D|--------------------------------------|

CHORUS: 
                              [palm-muted]  
e|----------------------------------------------|
B|----------------------------------------------|
G|----------------------------------------------|
D|---2-22-22-2-2-0-00-00-0-0--5-4-2-0-2-4-------|
A|---2-22-22-2-2-0-00-00-0-0--5-4-2-0-2-4-------|
D|---2-22-22-2-2-0-00-00-0-0--5-4-2-0-2-4-------|

                             [palm-muted]  
e|------------------------------------|
B|------------------------------------|
G|------------------------------------|
D|---2-22-22-2-2-0-00-00-0-0--0-00-0--|
A|---2-22-22-2-2-0-00-00-0-0--0-00-0--|
D|---2-22-22-2-2-0-00-00-0-0--0-00-0--|

THEN REPEAT INTRO, VERSE AND CHORUS!
TEHN SOLO TIME!
acoustic
e|-----------------------------------------------------------------------------|
B|-8-8-8-8-10-8-8s7-7-5h7-7-7-5-12-12-8-8-8-10-8-8s7-5-5-7-8-7-8-10-8-10-12-13-|
G|-----------------------------------------------------------------------------|
D|-----------------------------------------------------------------------------|
A|-----------------------------------------------------------------------------|
D|-----------------------------------------------------------------------------|
tehn
distorted
electric
e|--------------------------------------|
B|--------------------------------------|
G|-16-14-17-16-12-14-16-14-17-16-19-21--|
D|--------------------------------------|
A|-14-12-15-14-10-12-14-12-15-14-17-19--|
D|--------------------------------------|

Then Back to Chorus
                              [palm-muted]  
e|----------------------------------------------|
B|----------------------------------------------|
G|----------------------------------------------|
D|---2-22-22-2-2-0-00-00-0-0--5-4-2-0-2-4-------|
A|---2-22-22-2-2-0-00-00-0-0--5-4-2-0-2-4-------|
D|---2-22-22-2-2-0-00-00-0-0--5-4-2-0-2-4-------|

                             [palm-muted]  
e|------------------------------------|
B|------------------------------------|
G|------------------------------------|
D|---2-22-22-2-2-0-00-00-0-0--0-00-0--|
A|---2-22-22-2-2-0-00-00-0-0--0-00-0--|
D|---2-22-22-2-2-0-00-00-0-0--0-00-0--|

Then End ON
e|-----------------------------|
B|-----------------------------|
G|-----------------------------|
D|-22-2-22-2-2---00-0-00-0-0---|
A|-22-2-22-2-2---00-0-00-0-0---|
D|-22-2-22-2-2---00-0-00-0-0---|



============================================================================
Tap to rate this tab
 
# A B C D E F G H I J K L M N O P Q R S T U V W X Y Z