Song name
# A B C D E F G H I J K L M N O P Q R S T U V W X Y Z

The Call - Hum Se Hai Yeh Zamana tab

----------------------------------------------------------------------------
			     hum se hai yeh zamana - The Call
----------------------------------------------------------------------------
Tabbed by:Ahsen khan
Email:rocking_lead_guitar@hotmail.com

Tuning:standard (EADGBe)

okay well this is the whole song but i only tabbed the distorted guitar part not the 
part and the solo and the verse only the distorted guitar part is tabbed i am still wokring 
the solo and the acoustic part

Intro: guitar 1(distorted)

e|-------------------------------------------------------------------------|
B|-------------------------------------------------------------------------|
G|-------------------------------------------------------------------------|
D|---6-8-6-5---6-6-6-6-6--3-3-3-3-3-3------------6-------------------------|
A|-------------------------------------6-6-6-8-6---------------------------|
E|-------------------------------------------------------------------------|
       Guitar 2(distorted)
e|-------------------------------------------------------------------------|
B|-------------------------------------------------------------------------|
G|-------------------------------------------------------------------------|
D|---66-666-333--333---------6---------------------------------------------|
A|---44-444-111--111--66-686-4---------------------------------------------|
E|--------------------44-464-----------------------------------------------|

Chorus:let ring each chord for a while... figure out the timing by lisinting to the song
e|-------------------------------------------------------------------------|
B|-------------------------------------------------------------------------|
G|-------------------------------------------------------------------------|
D|-------------------------------------------------------------------------|
A|--7---3---5---2----7---3---5---3-----------------------------------------|
E|--5---1---3---0----5---1---3---3-----------------------------------------|

Interlude: this is where the solo with the wah pedal kicks in but i only have the rythem 
that its the same chords as the chorus strummed a couple of times according to the song

    (each chord) strum it a couple of times its five times per up and down strokes 
to the rythm of the song....... figure it out yourself
e|-------------------------------------------------------------------------|
B|-------------------------------------------------------------------------|
G|-------------------------------------------------------------------------|
D|-------------------------------------------------------------------------|
A|--7---3---5---2----7---3---5---3--let ring-------------------------------|
E|--5---1---3---0----5---1---3---3-----------------------------------------|

 now he goes back to the verse and then the same chorus repeated.... but this time after 
chorus he strums:

Break:

e|-----------|
B|-----------|
G|-----------|
D|-----------|
A|--7777---3-|
E|--5555---1-|let ring the last chord

then the vocal solo the ooooo oooo oooo oaaaaoooo part comes then the chorus repeats x2 
then finish it by playing the guitar 2 intro riff

so the order is intro x1
                verse (not tabbed)
                chorus x1
                interlude or solo (interlude)x1
                verse (not tabbed)
                chorus x1
                break with only the two chords x1
                then the vocal frenzy or whatever
                then chorus x2
                intro x1

okay well i think i done yup i am and inshallah the solo the acoustic part and the verse 
be cumin soon and feel free to kill me on this tab if you guys want anyways enjoy for 
improvement feel free to add later.....

============================================================================
Tap to rate this tab
# A B C D E F G H I J K L M N O P Q R S T U V W X Y Z