Song name
# A B C D E F G H I J K L M N O P Q R S T U V W X Y Z

The Calling - Could It Be Any Harder tab

-------------------------------------------------------------------------------
			     Could It Be Any Harder - The CAlling
-------------------------------------------------------------------------------

Tabbed by:Wil'sSupaTabz
Email:wil_foxzjjjjjjj@hotmail.co.uk

Tuning:Standard

e|----------------|-------------------|-------------------|------------------|
B|---------5h6p5--|-------------------|---3/5-------------|------------------|
G|--5-h-7---------|-5/7~-5~-4~----5~--|---------5--7--4---|------------------|
D|----------------|-------------------|-------------------|--7\5~------------|
A|----------------|-------------------|-------------------|------------------|
E|----------------|-------------------|-------------------|------------------|

e|-------7h8p7----|-------------------|-------------------|------------------|
B|----8-----------|---6h8~-8--8-8-----|--10-10-8-8--6h8-6-|--5---------------|
G|--7-------------|-------------------|-------------------|----7-7-5~--------|
D|----------------|-------------------|-------------------|------------------|
A|----------------|-------------------|-------------------|------------------|
E|----------------|-------------------|-------------------|------------------|

It's right! :D

| /  slide up
| \  slide down
| h  hammer-on
| p  pull-off
| ~  vibrato
| +  harmonic
| x  Mute note
===============================================================================
Tap to rate this tab
# A B C D E F G H I J K L M N O P Q R S T U V W X Y Z