Song name
# A B C D E F G H I J K L M N O P Q R S T U V W X Y Z

The Calling - Wherever You Will Go tab

Wherever You Will Go
=======================
tabbed by: Gino
(capo on 2nd fret)

Intro/Verse

|--------------------------------------------------------------------
|----------1----------1---------1-------1----1---1-------------------
|------0--0-0------0-0-0-----0-0-0--------2--------------------------
|----2---2---2---0--0---0---2-2---2---3-----3---3--------------------
|--3------------2----------0--------0--------------------------------
|--------------------------------------------------------------------


Chorus:

    C      G      Am      F
|---------33333---------11111---
|--11101--33333--11101--11111---
|--00000--00000--22222--22222---
|--22222--00000--22222--33333---
|--33333--22222-----------------
|---------33333-----------------
       

BRIDGE:   
   Am      F     G    Em    Am    F     G      Em 
|--------11111-33333-------------11111-33333---------------
|--11011-11111-33333-00000-11011-11111-33333-000000--------
|--22222-22222-44444-00000-22222-22222-44444-000000--------
|--22222-33333-55555-22222-22222-33333-55555-222222--------
|--------33333-55555-22222-------33333-55555-222222--------
|--------11111-33333-------------11111-33333--------------- 
Tap to rate this tab
 
# A B C D E F G H I J K L M N O P Q R S T U V W X Y Z