Song name
# A B C D E F G H I J K L M N O P Q R S T U V W X Y Z

The Calling - Stigmatized tab

standard tuning

Intro:
E----------------------------------------------------
B----------------------------------------------------
G---4----2-----4-----2-----6-----7-----6-----7-------
D----------------------------------------------------
A----------------------------------------------------
E---3----3-----3-----3-----5-----7-----5-----7------- x2

Verse 1:
E----------------------------------------------------
B----------------------------------------------------
G---4----2-----4-----2-----6-----7-----6-----7-------
D----------------------------------------------------
A----------------------------------------------------
E---3----3-----3-----3-----5-----7-----5-----7------- x2
Verse 1:
If I give up on you
then I give up on me
If we fight what's true
will we ever be
even god himself
and the faith i knew
shouldnt hold me back
shouldnt keep me from you

Chorus:
E----------------------------
B----------------------------
G--12---11---9---7-----------
D----------------------------
A----------------------------
E--12---10---9---7----------- x2

E------------------------------------
B------------------------------------
G--4---2---4---2---6---7---6---7-----
D------------------------------------
A------------------------------------
E--3---3---3---3---5---7---5---7-----
lead...
 E-------------------------------------------------------------------------------------
 B-------------------------------------------------------------------------------------
 G--------12---11---7--------12---11---7-----9---7-------------------------------------
 D----------------------------------------7--------------------------------------------
 A-------------------------------------------------------------------------------------
 E-------------------------------------------------------------------------------------
Chorus:
Tease me by holding out your hand
then leave me or take me as i am
and live our lives stigmatizes, yeah


Verse 2:

E----------------------------------------------------
B----------------------------------------------------
G---4----2-----4-----2-----6-----7-----6-----7-------
D----------------------------------------------------
A----------------------------------------------------
E---3----3-----3-----3-----5-----7-----5-----7------- x2

Verse 2:
I can feel the blood
rushing through my veins
when i hear your voice
driving me insane
hour after hour
day after day
every lonely night
that i sit and pray

Chorus:
E----------------------------
B----------------------------
G--12---11---9---7-----------
D----------------------------
A----------------------------
E--12---10---9---7----------- x2

E------------------------------------
B------------------------------------
G--4---2---4---2---6---7---6---7-----
D------------------------------------
A------------------------------------
E--3---3---3---3---5---7---5---7-----
lead
 E-------------------------------------------------------------------------------------
 B-------------------------------------------------------------------------------------
 G--------12---11---7--------12---11---7-----9---7-------------------------------------
 D----------------------------------------7--------------------------------------------
 A-------------------------------------------------------------------------------------
 E-------------------------------------------------------------------------------------
Chorus:
Tease me by holding out your hand
then leave me or take me as i am
and live our lives stigmatizes, yeah


Semi-Bridge:
E---------------------------------
B---------------------------------
G--4---2---4---2---6--------------
D---------------------------------
A---------------------------------
E--3---3---3---3---5--------------
Semi-Bridge:
and live our lives stigmatized
we live our lives on different sides but we keep together you and i
we live out lives, stigmatized

E-----------------------
B-----------------------
G--4---2---6---7--------
D-----------------------
A-----------------------
E--3---3---5---7--------

E-------------------
B-------------------
G--4---2---6--------
D-------------------
A-------------------
E--3---3---5--------

Bridge of Guitar:

E---------------------------
B---------------------------
G--2---4---6---7---6--------
D---------------------------
A---------------------------
E--3---3---5---7---5-------- x4

Bridge:
E----------------------------
B----------------------------
G--12---11---9---7-----------
D----------------------------
A----------------------------
E--12---10---9---7----------- x2

Bridge:
We live out lives
well take the punches everyday
we live our lives
i know were gonna find the way
ohhh, i believe in you
even if no one understands
yeah i beleive in you, and i don't give a damn

stigmatized

E---------------------------
B---------------------------
G--2---4---6---7---6--------
D---------------------------
A---------------------------
E--3---3---5---7---5-------- x4

E---------------------------------
B---------------------------------
G--4---2---4---2---6--------------
D---------------------------------
A---------------------------------
E--3---3---3---3---5--------------

E-----------------------
B-----------------------
G--4---2---6---7--------
D-----------------------
A-----------------------
E--3---3---5---7--------

E-------------------
B-------------------
G--4---2---6--------
D-------------------
A-------------------
E--3---3---5--------



Whole Lyrics
Verse 1:
If I give up on you
then I give up on me
If we fight what's true
will we ever be
even god himself
and the faith i knew
shouldnt hold me back
shouldnt keep me from you

Chorus:
Tease me by holding out your hand
then leave me or take me as i am
and live our lives stigmatizes, yeah

Verse 2:
I can feel the blood
rushing through my veins
when i hear your voice
driving me insane
hour after hour
day after day
every lonely night
that i sit and pray

(Chrorus)

Semi-Bridge:
and live our lives stigmatized
we live our lives on different sides but we keep together you and i
we live out lives, stigmatized

Bridge:
We live out lives
well take the punches everyday
we live our lives
i know were gonna find the way
ohhh, i believe in you
even if no one understands
yeah i beleive in you, and i don't give a damn

stigmatized


Hi. To....
Edward Valencia, Rugie SUase, Jeff Driz.. Joseph Talain, Kayvin Gatdula. to all my friends... NOEMHEE ILAGAN... etc....


any f*cking comments?, or sh*t pile of complaints??? or praises???
E-mail me @ paul_masta@digitelone.com

Tap to rate this tab
 
# A B C D E F G H I J K L M N O P Q R S T U V W X Y Z