Song name
# A B C D E F G H I J K L M N O P Q R S T U V W X Y Z

The Canon Logic - The System tab

Tabbed by: Barack Obama
Band: The Canon Logic
Song: The System
http://www.purevolume.com/thecanonlogic


Organ Intro
           C                 Am                    Fm

E--0---0---0---0---0--0--|-0---0---0--0---0---0-|--0-0-0-3-0-3-0---0-0-0-3-5-7----
B----1---1-------1---1---|---1---1------1---1---|---------------------------------
G------------------------|----------------------|---------------------------------
D------------------------|----------------------|---3-3-3-3-3-3-3---3-3-3----------
A--3---3---3---3---3--3--|-0---0---0--0---0---0-|---------------------------------
E------------------------|----------------------|---------------------------------

                                 C

Can you feel it when it comes now, Can you feel it when it comes now

                                 Am

Can you feel it when it comes now, Can you feel it when it comes now


e|----------------------------------------------------|
B|----------------------------------------------------|
G|----------------------------------------------------|
D|-3333--5555--7777--10-10----------------------------|
A|-3333--5555--7777--10-10----------------------------|
E|-1111--3333--5555--8--8-----------------------------|


Can you feel it when it comes now, Can you feel it when it comes now!

Add this into it for the verse now

e|--0-1-0---0---0-1-0------|--0-1-0---0---0-1-0------|--0-0-0-3-3-0-0-0-0-3-5-7--|
B|--------3-----------3-1--|--------3-----------3-1--|---------------------------|
G|-------------------------|-------------------------|---------------------------|
D|-------------------------|-------------------------|--3-3-3-3-3-3-3-3-3--------|
A|--3-3-3-------3-3-3------|--0-0-0-------0-0-0------|---------------------------|
E|-------------------------|-------------------------|---------------------------|

at 1:30

e|----------------------------------------------------|
B|----------------------------------------------------|
G|----------------------------------------------------|
D|-3333--5555--7777--10-10----------------------------|
A|-3333--5555--7777--10-10----------------------------|
E|-1111--3333--5555--8--8-----------------------------|    x3

this plays at the same time

e|-----------------------------------------------|
B|-----------------------------------------------|
G|--10--12s14--12--14--16-17--21-21--------------|
D|-----------------------------------------------|
A|--8---10s12--10--12--14-15--19-19--------------|
E|-----------------------------------------------|

e|----------------------------------------------------|
B|----------------------------------------------------|
G|----------------------------------------------------|
D|-3333--5555--7777--5555-----------------------------|
A|-3333--5555--7777--5555-----------------------------|
E|-1111--3333--5555--3333-----------------------------|    x1

chorus

Oh I can feel it in my bones

e|----------------------------------------------------|
B|----------------------------------------------------|
G|----------------------------------------------------|
D|-3333--10-10--5555--3333----------------------------|
A|-3333--10-10--7777--5555----------------------------|
E|-1111--8--8---7777--5555----------------------------|

e|-------------------------------------------------------|
B|-------------------------------------------------------|
G|--10101010101010-12-99999999-10-9999999-10-77-55-44-55-|
D|-------------------------------------------------------|
A|--8-8-8-8-8-8-8--10-77777777-8--7777777-8--55-33-22-33-|
E|-------------------------------------------------------|

Saw the quickness of the cavalry come, I watched them go

e|--------------------------------------------|
B|--------------------------------------------|
G|--------------------------------------------|
D|---5555--7777-------------------------------|
A|---5555--7777-------------------------------|
E|---3333--5555-------------------------------|

End on F

corrections e-mail SelfRevolution37@yahoo.com
Tap to rate this tab
# A B C D E F G H I J K L M N O P Q R S T U V W X Y Z