Song name
# A B C D E F G H I J K L M N O P Q R S T U V W X Y Z

The Captain And Tennille - Love Will Keep Us Together chords

Highlighted       Show chord diagrams
Capo on 2nd Fret


   A+      003221
   A6      002222
   E7sus4  020200



   Where the A* chord is play:

e|---------------------------------------------------------------------------|
B|-5---------7-------8----7------5------7------8----7------------------------|
G|--6-------6------6-----6--------6----6-----6-----6-------------------------|
D|---7-------7------7-----7--------7----7-----7-----7------------------------|
A|---------------------------------------------------------------------------|
E|---------------------------------------------------------------------------|

e|----0------0------0-----0------0-----0------0------0-----------------------|
B|---5------7------8-----7------5-----7------8------7------------------------|
G|--4------6------7-----6------4-----6------7------6-------------------------|
D|---------------------------------------------------------------------------|
A|---------------------------------------------------------------------------|
E|---------------------------------------------------------------------------|



A*
Love, love will keep us together
                     F#7
Think of me babe whenever
                   D               
Some sweet talking girl comes along singing a song
Dm                    
Don't mess around, you just got to be strong
     A            A+
Just Stop, 'cause I really love you
A6            A7
Stop, I'll be thinking of you 
D          A             E7sus4            
Look in my heart and let love keep us together

A*
You, you belong to me now
                    F#7
Ain't gonna set you free now
                       D
When those girls start hanging around, talking me down
Dm                         
Hear with your heart and you won't hear a sound
     A            A+                 A6            A7
Just stop, 'cause I really love you, stop, I'll be thinking of you 
D          A             E7sus4
Look in my heart and let love keep us together, whatever

C     G   D     A   F                          A
Young and beautiful someday your looks will be gone
C        G      D        A    F                     E7sus4
When the others turn you off, who'll be turning you on?

I will, I will, I will

A*
I will be there to share forever
                    F#7
Love will keep us together
                        D 
Said it before and I'll say it again, while others pretend
Dm
I need you now and I'll need you then
A            A+                 A6            A7
Stop, 'cause I really love you, stop, I'll be thinking of you 
D          A             E7sus4
Look in my heart and let love keep us together, whatever
I will, I will, I will
A            A+                 A6            A7 
Stop, 'cause I really love you, stop, I'll be thinking of you 
D          A             E7sus4
Look in my heart and let love keep us together, whatever
I will, I will, I will, I will
Tap to rate this tab
# A B C D E F G H I J K L M N O P Q R S T U V W X Y Z