Song name
# A B C D E F G H I J K L M N O P Q R S T U V W X Y Z

The Carrier - Unloved tab

The Carrier - Unloved (Intro)

|-------------- |
|-------------- |
|--x--x--x--x-- |
|--x--x--x--x-- |
|--x--x--x--x-- |
|-------------- |

|-------------------------------------------------- |
|-------------------------------------------------- |
|--7--7--7--7--7--7--7--7-------------------------- |
|--7--7--7--7--7--7--7--7--12-12-12-12-10-10-5--5-- |
|--5--5--5--5--5--5--5--5--8--8--8--8--7--7--7--7-- |
|--------------------------8--8--8--8--7--7-------- |

|----------------------------------------------------- |
|----------------------------------------------------- |
|--2--2--2--2--2--2--2--2--2-------------------------- |
|--0--0--0--0--0--0--0--0--0--8--8--8--8--10-10-10-10- |
|--0--0--0--0--0--0--0--0--0--8--8--8--8--10-10-10-10- |
|--0--0--0--0--0--0--0--0--0--8--8--8--8--10-10-10-10- |


tabbed by awung
Tap to rate this tab
 
# A B C D E F G H I J K L M N O P Q R S T U V W X Y Z