Song name
# A B C D E F G H I J K L M N O P Q R S T U V W X Y Z

The Casanovas - Shake It tab

SONG:SHAKE IT
BAND:CASANOVAS
TABBED:JAKE LINDSAY

These Guys Are a Dead Set Rock'n'Roll Band That that absoluteley Kick arse
i heard em once and now there 1 of my favourites So Yeah

Heres some tabs which hopefully sounds right for you to show your wonderful friends


               INTRO
E|-----------------------------------------------------------------|
B|-----------------------------------------------------------------|
G|-----------------------------------------------------------------|
D|------------------------------------2-2-4-2-4-2--2-2-4-2---------|
A|----9-9-11-9-11-9----7-7-9-7-9-7----2-2-2-2-2-2--2-2-2-2--7-7----|
E|----7-7-7--7-7--7----5-5-5-5-5-5----0-0-0-0-0-0--0-0-0-0--5-5----|

              INTRO CONT.
E|--------------------------------------|
B|--------------------------------------|
G|--------------------------------------|
D|--------------------------------------|
A|----9-9-11-9-11-9----7-7-9-7-9-7---2--|
E|----7-7-7--7-7--7----5-5-5-5-5-5---0--|


                  PLAY THIS PART FOR THE REST OF THE SONG

E|-----------------------------------------------------------------|
B|-----------------------------------------------------------------|
G|-----------------------------------------------------------------|
D|------------------------------------2-2-4-2-4-2--2-2-4-2---------|
A|----9-9-11-9-11-9----7-7-9-7-9-7----2-2-2-2-2-2--2-2-2-2--7-7----|
E|----7-7-7--7-7--7----5-5-5-5-5-5----0-0-0-0-0-0--0-0-0-0--5-5----|

Thats Right Kids, Its that easy YAY
And Let Me Know For any Parts That is
wrong or ive missed out on
Yours Sincere
lindsay_the_lunchbox@hotmail.com
Tap to rate this tab
# A B C D E F G H I J K L M N O P Q R S T U V W X Y Z