Song name
# A B C D E F G H I J K L M N O P Q R S T U V W X Y Z

The Casanovas - Nasty tab

Nasty-The Casanovas

Intro, verse


e-------------------------------------------|
G-------------------------------------------|
B---4-4-4-4--4-4-4--4-4------2--------------|
D---4-4-2-4--4-2-4--4-2------2---2----------|
A---2-2-2-2--2-2-2--2-2------0---2----------|
E--------------------------------0----------|


    Well i'm not into hurting...


Pre-chorus


e----------------------------------------|
G----------------------------------------|
B---------------------------2------------|
D---4-----------------------2---2--------|
A---4-----------------------0---2--------|
E---2---------------------------0--------|


    I didnt mean to hurt ya


e-----------------------------------------|
G-----------------------------------3-----|
B-----------------------------------2---2-|
D---4-------------------------------0---2-|
A---4-----------------------------------0-|
E---2-------------------------------------|


    Or rub your nose in the dust


e----------------------------------------|
G----------------------------------------|
B---4-4-4-4--4-4-4--4-4-----2------------|
D---4-4-2-4--4-2-4--4-2-----2--2---------|
A---2-2-2-2--2-2-2--2-2-----0--2---------|
E------------------------------0---------|


    I was out of my mind now baby
    I went to hell with lust


e-----------------------------------------|
G-----------------------------------------|
B------------------------------------4--2-|
D---4--------------------------------4--2-|
A---4--------------------------------2--0-|
E---2-------------------------------------|


    Baby, baby i wont tell you no li-i-es


e-----------------------------------------|
G-----------------------------------------|
B-----------------------------------4-4-4-|
D-----------------------------------4-4-2-| and continue... Nasty!
A-----------------------------------2-2-2-|
E-----------------------------------------|

    I know you got, you got a nasty surprise
Tap to rate this tab
# A B C D E F G H I J K L M N O P Q R S T U V W X Y Z