Song name
# A B C D E F G H I J K L M N O P Q R S T U V W X Y Z

The Cat Empire - The Rythm tab

Tabbed by: Solced
Email: Solced@gmx.net

Tuning:Standart E A D G B e


Intro Solo (updated)


hope it is accurate with the hammer-ons and pull-offs!

e|--------------------------------------------------------------------------|
B|--------------------------------------------------------------------------|
G|------7-8-----------8---7h8-5h7----5-7--------------7h8-7-7h8-------------|
D|---5--------5-5-5h6-----------------------6-5---5-------------------------|
A|--------------------------------------------------------------------------|
E|--------------------------------------------------------------------------|

e|---------------------------------------------7-8-7---8-10-8-7-8-10-8-7-8-|
B|-----------------3-4-6--3h4p3--------------------------------------------|
G|------7h8-8-----------------------5-3-----0------------------------------|
D|--5---------6------------------------------------------------------------|
A|-------------------------------------------------------------------------|
E|-------------------------------------------------------------------------|

e|--------------------------------------------------------------------------|
B|--8-8-8--8h9-----------------3--------------------------------------------|
G|----------------5-5-5-5p3--3----------------------------------------------|
D|--------------------------------------------------------------------------|
A|--------------------------------------------------------------------------|
E|--------------------------------------------------------------------------|

*Laughing*  - song beginns
Tap to rate this tab
# A B C D E F G H I J K L M N O P Q R S T U V W X Y Z