The Cat Empire - Song For Elias tab

Verse
e |-----3---------4-3-----3-----------1---|
H |---4---6---3-6-------4---4-------3---4-|
G |---------------------------5---4-------|
D |---------------3-1-----1---------------|
A |-3-6-------1-5-------3---3-------2-2-3-|
E |-------4-------------------4---3-------|


Bridge

e |-------4-3---------3-------------------|
H |---4-6-----6-4---4-----3-4-------3-6-4-|
G |-5-------------5-----4-----5---4-------|
D |-------3-1---------1-------------------|
A |---3-5-----5-3---3-----2-3-------2-5-3-|
E |-4-------------4-----3-----4---3-------|
Tap to rate this tab
 
# A B C D E F G H I J K L M N O P Q R S T U V W X Y Z