Song name
# A B C D E F G H I J K L M N O P Q R S T U V W X Y Z

The Cat Empire - Fishies tab

-----------------------------------------------|
-----------------------------------------------|
-------3---5---5-------------------------------|       Repeatedly
--------------------------5--------------------|
--3------------------6-------------------------|
-----------------------------------------------|

Then it goes like

-----------------------------------------------------------------------------------|
-----------------------------------------------------------------------------------|
-----------------------------------------------------------------------------------|
--6-6-6-6-6-6-6-6--5-5-5-5-5-5-5-5--6-6-6-6--8-8--6--5-----------------------------|
-----------------------------------------------------------------------------------|
-----------------------------------------------------------------------------------|

And again

-----------------------------------------------|
-----------------------------------------------|
-------3---5---5-------------------------------|       Repeatedly
--------------------------5--------------------|
--3------------------6-------------------------|
-----------------------------------------------|
Tap to rate this tab
 
# A B C D E F G H I J K L M N O P Q R S T U V W X Y Z