Song name
# A B C D E F G H I J K L M N O P Q R S T U V W X Y Z

The Cat Empire - Brighter Than Gold tab

-----------------------------------------------------------------------------
                        Brighter Than Gold - Cat Empire
----------------------------------------------------------------------------- 
Tabbed by: Billy J
Tuning: Standard (EADGEBe)
Guitar/Bass Tabs
(This is my own interpretation of the song, not what is played by The Cat Empire)

Guitar Riff:

Intro/Verse

   Ebm                   B                   Ebm                                  
e|-------------------------------------------------------------------------|
B|-------------------------------------------------------------------------|
G|------------6-6h8h6------------------------------------6-6h8h6-----------|
D|--8-----6-8---------8----9---9---9---9-------8-----6-8---------8---------|
A|----6-9----------------------------------------6-9-----------------------|
E|---------------------------7---7---7---7---------------------------------|
                       x6                  x2                     x2

Chorus:
   F#             Ebm           B             Ebm    C#
e|-------------------------------------------------------------|
B|-------------------------------------------------------------|
G|-----------------8--8--8--8------------------8--8--6--6------|
D|---4--4--4--4------------------9--9--9--9--------------------|
A|----------------6--6--6--6------------------6--6--4--4-------|
E|--2--2--2--2------------------7--7--7--7---------------------|
   B              F#     C#
e|-------------------------------------------------------------|
B|-------------------------------------------------------------|
G|-----------------------6--6----------------------------------|
D|---9--9--9--9----4--4----------------------------------------|
A|----------------------4--4-----------------------------------|
E|--7--7--7--7----2--2-----------------------------------------|


Bass Riff:

Intro/Verse
     Ebm         
eb|------------------------------------------------------------|
Bb|------------------------------------------------------------|
Gb|------------------------------------------------------------|
Db|-------0-2-0-0----------------------------------------------|
Ab|-----2---------2--------------------------------------------|
Eb|--0---------------------------------------------------------|

Chorus:
   F#             Ebm           B             Ebm    C#
e|-------------------------------------------------------------|
B|-------------------------------------------------------------|
G|-------------------------------------------------------------|
D|-------------------------------------------------------------|
A|----------------6--6--6--6------------------6--6--4--4-------|
E|--2--2--2--2------------------7--7--7--7---------------------|
   B              F#     C#
e|-------------------------------------------------------------|
B|-------------------------------------------------------------|
G|-------------------------------------------------------------|
D|-------------------------------------------------------------|
A|----------------------4--4-----------------------------------|
E|--7--7--7--7----2--2-----------------------------------------|
Tap to rate this tab
# A B C D E F G H I J K L M N O P Q R S T U V W X Y Z