Guitaretab - guitar tabs
Song name
# A B C D E F G H I J K L M N O P Q R S T U V W X Y Z

The Cats - One Way Wind tab

This is my first tab, i hope you guys like it. Rob's

h= hammer on
/= slide
p= pull off

[ Tab from: http://www.guitaretab.com/t/the-cats/65920.html ]
e----------------------------------7--9--11--9--11-11h12-12-----|
B5/9--9-9h10--10---9/7--7--9--10-------------------------------|
G---------------------------------------------------------------|
D---------------------------------------------------------------|
A---------------------------------------------------------------|
E---------------------------------------------------------------|

e7h9p7----------------7-----7/12--12-11-9-11-9-7-9-11-11h12-12-|
B--------10-9--9-9h10----10-------------------------------------|
G---------------------------------------------------------------|
D---------------------------------------------------------------|
A---------------------------------------------------------------|
E---------------------------------------------------------------|
Related for One Way Wind tab