The Cave Singers - Seeds Of Night chords

Highlighted       Show chord diagrams
----------------------------------------------------
Seeds of the Night - The Cave Singers
----------------------------------------------------

Tabbed by: Jonah

Tuning: Standard


Super Easy, just keep repeating:

E (OneTwo-ThreeFour), 
A* (OneTwo-ThreeFour),
B* (OneTwo-ThreeFour),
A* (OneTwo), B* (ThreeFour)


         E       A*       B*       A*       B*       
e|-------0-------0--------0--------0--------0--------|
B|-------0-------0--------0--------0--------0--------|
G|-------1-------2--------4--------2--------4--------|
D|-------2-------2--------4--------2--------4--------|
A|-------2-------0--------2--------0--------2--------|
E|-------0-------0--------0--------0--------0--------|
Tap to rate this tab
 
# A B C D E F G H I J K L M N O P Q R S T U V W X Y Z