The Cave Singers - Black Leaf tab

----------------------------------------------------------------------------
                             Cave Singers
                              Black Leaf  
----------------------------------------------------------------------------

Hello. Heres this is what i make out of the main riff to Black Leaf.


e|------------------------------------|
B|------------------------------------|
G|----0----3----5---3-----------------|
D|----0----3----5---3--7-p-5--7--5----|
A|---------------------7-p-5--7--5----|
E|------------------------------------|

This palm muted section is pretty much the same except for the end.



 (Palm Mute)
e|---------------------------------------|x3
B|---------------------------------------|
G|---0-----3----5---3--------------------|
D|---0-----3----5---3--7-p-5--7--5-------|
A|---------------------7-p-5--7--5-------|
D|---------------------------------------|

Lift palm the forth time and i think it ends like so:


e|----------------------------------------|
B|----------------------------------------|
G|---0---3--5-5---7-p-5---7---------------|
D|---0---3--5-5---7-p-5-5-7---------------|
A|----------------------------------------|
E|----------------------------------------|


Thats about it, the rest is alot of palm muting which im sure youll be able to work out.
Tap to rate this tab
 
# A B C D E F G H I J K L M N O P Q R S T U V W X Y Z