The Cave Singers - Leap tab

This song consists of two parts:)

Part 1:
|----------------------|----------------------|
|----------------------|----------------------|
|---0--------0--------0|---0--------0--------0|
|-------2p-------2p----|-------2p-------2p----|
|----------------------|----------------------|
|-3---3----3---3----3--|-3---3----3---3----3--|

Part 2:
|------------------------|-----------------------|
|------------1p----------|-----------1p----------|
|---0---2p--------2p---0-|--0---2p--------2p---0-|
|------------------------|-----------------------|
|-3---3----3----3----3---|-3---3----3----3----3--|
|------------------------|-----------------------|

Just repeat this throughout the song!

Tabbed by Daniel Malo Dyb
Tap to rate this tab
 
# A B C D E F G H I J K L M N O P Q R S T U V W X Y Z