Song name
# A B C D E F G H I J K L M N O P Q R S T U V W X Y Z

The Cave Singers - Vv tab

Tab by: Shawn Burns
email: sburns@uvic.ca

The Cave Singers: Vv.
From the album: Welcome Joy (Premiere).

() denotes optional note.
Chords are written on top of tabs. I find it best to limit strumming to the four lower strings,
leaving out the B and e strings. Check out the song for timing. Enjoy!

INTRO:

Strum G, C, G, C then tab comes in at 0:10:

G               C            G               C
--------------------0-----0--------------------0------0--------------------|
--0-3-0---0-3-0---1--1--1--1--0-3-0---0-3-0---1--1---1--1------------------|
0-------0-------0------0-----0-------0-------0------0----------------------|
---------------------------------------------------------------------------|
---------------------------------------------------------------------------|
---------------------------------------------------------------------------|
(0:10)

G                 C                   G                C
---3-5r3-3---(3)-------7-----7--5--(5)---3-5r3-3----(3)-----7---7----5---(5)-|
0-3--------3---------5---5----5--5-----3--------3---------5---5---5---5------|
-------------0------5------5---5--5---0-----------0-----5------5---5---5-----|
------------------5------------------------------------5---------------------|
-----------------------------------------------------------------------------|
-----------------------------------------------------------------------------|
(0:20)


VERSE:

G               C            G               C
--------------------0-----0--------------------0------0--------------------|
--0-3-0---0-3-0---1--1--1--1--0-3-0---0-3-0---1--1---1--1------------------|
0-------0-------0------0-----0-------0-------0------0----------------------|
---------------------------------------------------------------------------|
---------------------------------------------------------------------------|
---------------------------------------------------------------------------|
(0:30)

G               C            G               C
--------------------0-----0--------------------0------0--------------------|
--0-3-0---0-3-0---1--1--1--1--0-3-0---0-3-0---1--1---1--1------------------|
0-------0-------0------0-----0-------0-------0------0----------------------|
---------------------------------------------------------------------------|
---------------------------------------------------------------------------|
---------------------------------------------------------------------------|
(0:39)

C
--0-3-0---0-3-0---0-3-0---0-3-0------|
1-------1-------1--------1-----------|
-------------------------------------|
-------------------------------------|
-------------------------------------|
-------------------------------------|
(0:49)


CHORUS:

G                 C                   G                C
---3-5r3-3---(3)-------7-----7--5--(5)---3-5r3-3----(3)-----7---7----5---(5)-|
0-3--------3---------5---5----5--5-----3--------3---------5---5---5---5------|
-------------0------5------5---5--5---0-----------0-----5------5---5---5-----|
------------------5------------------------------------5---------------------|
-----------------------------------------------------------------------------|
-----------------------------------------------------------------------------|
(0:54)


VERSE:

G               C            G               C
--------------------0-----0--------------------0------0--------------------|
--0-3-0---0-3-0---1--1--1--1--0-3-0---0-3-0---1--1---1--1------------------|
0-------0-------0------0-----0-------0-------0------0----------------------|
---------------------------------------------------------------------------|
---------------------------------------------------------------------------|
---------------------------------------------------------------------------|
(1:04)

G               C            G               C
--------------------0-----0--------------------0------0--------------------|
--0-3-0---0-3-0---1--1--1--1--0-3-0---0-3-0---1--1---1--1------------------|
0-------0-------0------0-----0-------0-------0------0----------------------|
---------------------------------------------------------------------------|
---------------------------------------------------------------------------|
---------------------------------------------------------------------------|
(1:13)

C
--0-3-0---0-3-0---0-3-0---0-3-0------|
1-------1-------1--------1-----------|
-------------------------------------|
-------------------------------------|
-------------------------------------|
-------------------------------------|
(1:23)


BRIDGE:

C       C/B    F C       C/B    F C       C/B    F C       C/B    C
------------------------------------------------------------------------------------|
1-1-1-1-0-0-0----1-1-1-1-0-0-0----1-1-1-1-0-0-0----1-1-1-1-0-0-0-0-1-1-1-1-1-1-1-1--|
--------------0----------------0----------------0-----------------------------------|
---------------3----------------3-----------------3---------------------------------|
------------------------------------------------------------------------------------|
------------------------------------------------------------------------------------|
(1:28)


VERSE:

G               C            G               C
--------------------0-----0--------------------0------0--------------------|
--0-3-0---0-3-0---1--1--1--1--0-3-0---0-3-0---1--1---1--1------------------|
0-------0-------0------0-----0-------0-------0------0----------------------|
---------------------------------------------------------------------------|
---------------------------------------------------------------------------|
---------------------------------------------------------------------------|
(1:47)

G               C            G               C
--------------------0-----0--------------------0------0--------------------|
--0-3-0---0-3-0---1--1--1--1--0-3-0---0-3-0---1--1---1--1------------------|
0-------0-------0------0-----0-------0-------0------0----------------------|
---------------------------------------------------------------------------|
---------------------------------------------------------------------------|
---------------------------------------------------------------------------|
(1:57)

C
--0-3-0---0-3-0---0-3-0---0-3-0------|
1-------1-------1--------1-----------|
-------------------------------------|
-------------------------------------|
-------------------------------------|
-------------------------------------|
(2:07)


ENDING VERSE AND CHORUS:

G               C            G               C
--------------------0-----0--------------------0------0--------------------|
--0-3-0---0-3-0---1--1--1--1--0-3-0---0-3-0---1--1---1--1------------------|
0-------0-------0------0-----0-------0-------0------0----------------------|
---------------------------------------------------------------------------|
---------------------------------------------------------------------------|
---------------------------------------------------------------------------|
(2:11)

G               C            G               C
--------------------0-----0--------------------0------0--------------------|
--0-3-0---0-3-0---1--1--1--1--0-3-0---0-3-0---1--1---1--1------------------|
0-------0-------0------0-----0-------0-------0------0----------------------|
---------------------------------------------------------------------------|
---------------------------------------------------------------------------|
---------------------------------------------------------------------------|
(2:21)

G                 C                   G                C
---3-5r3-3---(3)-------7-----7--5--(5)---3-5r3-3----(3)-----7---7----5---(5)-|
0-3--------3---------5---5----5--5-----3--------3---------5---5---5---5------|
-------------0------5------5---5--5---0-----------0-----5------5---5---5-----|
------------------5------------------------------------5---------------------|
-----------------------------------------------------------------------------|
-----------------------------------------------------------------------------|
(2:31)

G                 C                   G                C
---3-5r3-3---(3)-------7-----7--5--(5)---3-5r3-3----(3)-----7---7----5---(5)-3-|
0-3--------3---------5---5----5--5-----3--------3---------5---5---5---5--------|
-------------0------5------5---5--5---0-----------0-----5------5---5---5-------|
------------------5------------------------------------5-----------------------|
-------------------------------------------------------------------------------|
-------------------------------------------------------------------------------|
(2:40)
Tap to rate this tab
# A B C D E F G H I J K L M N O P Q R S T U V W X Y Z