Song name
# A B C D E F G H I J K L M N O P Q R S T U V W X Y Z

The Cave Singers - Swim Club tab

thecavesingers.com

Capo on First fret

  G      C         G       C
|----------------|----------------|
|---3-----------3|---3-----------3|
|--0---0---0---0-|--o---0---0---0-|   Repeats during intro and verse
|------------2(H)|------------2---|   With some variations
|----2(h)3-------|----2(h)3-------|  
|3---------------|3---------------|          

|----------------|----------------|
|---0--7(p)-0--1p|---0-------0----|
|--0-------0-----|--0---2p--0-----| Repeat 4 times during both choruses
|----------------|2---2---------4-| I'm not 100% certain about the second
|7---7---2---2---|--------5---5---| measure.  But it should weork
|----------------|----------------|

At the end of the chorus, repeat this 4 times

|----------------|
|----------------|
|---0--0---0---0-|  This is pretty close. 
|--4--4----4--4--|
|5---5---5---5---|
|----------------|
Tap to rate this tab
# A B C D E F G H I J K L M N O P Q R S T U V W X Y Z