Song name
# A B C D E F G H I J K L M N O P Q R S T U V W X Y Z

The Ceasars - Jerk It Out tab

-------------------------------------------------------------------------------
			     Jerk it out - The Ceasars
-------------------------------------------------------------------------------
Tabbed by: GreenGoblinGrape
Email: Woutervzo@hotmail.com

Tuning: Standard

e|--4---77-------------------------------------------------------------------|
B|--4---77----77---55--------------------------------------------------------|
G|--4---44----66---44--------------------------------------------------------|
D|------------44---22--------------------------------------------------------|
A|---------------------------------------------------------------------------|
E|---------------------------------------------------------------------------|

Chorus
e|-4-4-4-4---7-7-7-7-------------7-7-7-7-------------------------------------|
B|-4-4-4-4---7-7-7-7---7-7-7-7---7-7-7-7-------------------------------------|
G|-4-4-4-4---4-4-4-4---6-6-6-6---4-4-4-4-------------------------------------|
D|---------------------4-4-4-4-----------------------------------------------|
A|---------------------------------------------------------------------------|
E|---------------------------------------------------------------------------|

e|-4-4-4-4---7-7-7-7---------------------------------------------------------|
B|-4-4-4-4---7-7-7-7---7-7777777---------------------------------------------|
G|-4-4-4-4---4-4-4-4---6-6666666---------------------------------------------|
D|---------------------4-4444444---------------------------------------------|
A|---------------------------------------------------------------------------|
E|---------------------------------------------------------------------------|

-Breakdown-

Chorus 2
e|-4-4-4-4---7-7-7-7---------------------------------------------------------|
B|-4-4-4-4---7-7-7-7---7-7-7-7---5-5-5-5-------------------------------------|
G|-4-4-4-4---4-4-4-4---6-6-6-6---4-4-4-4-------------------------------------|
D|---------------------4-4-4-4---2-2-2-2-------------------------------------|
A|---------------------------------------------------------------------------|
E|---------------------------------------------------------------------------|

e|-4-4-4-4---7-7-7-7---------------------------------------------------------|
B|-4-4-4-4---7-7-7-7---7-7777777---------------------------------------------|
G|-4-4-4-4---4-4-4-4---6-6666666---------------------------------------------|
D|---------------------4-4444444---------------------------------------------|
A|---------------------------------------------------------------------------|
E|---------------------------------------------------------------------------|

''Solo''
e|---------------------------------------------------------------------------|
B|-12--11--7--2--2--4---12--14--16--19-19-19-19-19-19-19-19------------------|
G|---------------------------------------------------------------------------|
D|---------------------------------------------------------------------------|
A|---------------------------------------------------------------------------|
E|---------------------------------------------------------------------------|

e|---------------------------------------------------------------------------|
B|---/9-9--/9-9-/9-9--/9-9--/9-9----/7-7--/7-7--/7-7-/9-9-/7-7-/9-9-9--------|
G|---------------------------------------------------------------------------|
D|---------------------------------------------------------------------------|
A|---------------------------------------------------------------------------|
E|---------------------------------------------------------------------------|

e|---------------------------------------------------------------------------|
B|---/5-5--/5-5--/5-5--/5-5--/9-9-----9-9--/16-16--/16-16--/16-16--/16-16----|
G|---------------------------------------------------------------------------|
D|---------------------------------------------------------------------------|
A|---------------------------------------------------------------------------|
E|---------------------------------------------------------------------------|

e|---------------------------------------------------------------------------|
B|---20*--/16-16--/16-16--/16-16--/16-16--/16-16-----------------------------|
G|---------------------------------------------------------------------------|
D|---------------------------------------------------------------------------|
A|---------------------------------------------------------------------------|
E|---------------------------------------------------------------------------|

End note:
e|--4------------------------------------------------------------------------|
B|--4------------------------------------------------------------------------|
G|--4------------------------------------------------------------------------|
D|---------------------------------------------------------------------------|
A|---------------------------------------------------------------------------|
E|---------------------------------------------------------------------------|

*Just try bending this note whilst listening to the song, you should be able to get it 
to sound alike.

************************************

| /   slide up
| \   slide down
| h   hammer-on
| p   pull-off
| ~   vibrato
| +   harmonic
| x   Mute note
| b   Bend
| pb  Pre-bend
| br  Bend release
| pbr Pre-bend release
| brb Bend release bend
| *   See for additional info
************************************
Tap to rate this tab
# A B C D E F G H I J K L M N O P Q R S T U V W X Y Z