Song name
# A B C D E F G H I J K L M N O P Q R S T U V W X Y Z

The Celibate Rifles - Lets Get Married tab

This is my first tab. I think its spot on, but if it isn't take it easy on me (:

Intro 
E------------------------------------------------------------------------|
B--55-44-------11-99-777777777-555555555---------------------------------|
D--55-44-77-55-11-99-777777777-555555555---------------------------------|
A--33-22-77-55-9--77-555555555-355555555---------------------------------|
E--------55-33-----------------------------------------------------------|

Verse:1
E------------------------------------------------------------------------|
B------------------------------------------------------------------------|
G----------99--11111111---------99---------------------------------------|X2
D--9999999-99--11111111-9999999-99-777-----------------------------------|
A--9999999-77--9-9-9-9--9999999-77-777-----------------------------------|
E--7777777--------------7777777----555-----------------------------------|


Chorus
E------------------------------------------------------------------------|
B------------------------------------------------------------------------|
G--777777-77-9999--------77----------------------------------------------|
D--777777-77-9999-777777-77-5555-----------------------------------------|
A--777777-55-7777-777777-55-5555-----------------------------------------|
E--555555---------555555----3333-----------------------------------------|

E------------------------------------------------------------------------|
B------------------------------------------------------------------------|
G--777777-77-9999--------------------------------------------------------|
D--777777-77-9999--------------------------------------------------------|
A--777777-55-7777--------------------------------------------------------|
E--555555----------------------------------------------------------------|


Bridge
E------------------------------------------------------------------------|
B------------------------------------------------------------------------|
G-------9----------------------------------------------------------------|
D-----9-9----------------------------------------------------------------|
A-----9-7----------------------------------------------------------------|
E-----7------------------------------------------------------------------|

Verse:2
E------------------------------------------------------------------------|
B------------------------------------------------------------------------|
G----------99--11111111---------99---------------------------------------|
D--9999999-99--11111111-9999999-99-777-----------------------------------|X2
A--9999999-77--9-9-9-9--9999999-77-777-----------------------------------|
E--7777777--------------7777777----555-----------------------------------|


Chorus
E------------------------------------------------------------------------|
B------------------------------------------------------------------------|
G--777777-77-9999--------77----------------------------------------------|
D--777777-77-9999-777777-77-5555-----------------------------------------|
A--777777-55-7777-777777-55-5555-----------------------------------------|
E--555555---------555555----3333-----------------------------------------|

E------------------------------------------------------------------------|
B------------------------------------------------------------------------|
G--777777-77-9999--------------------------------------------------------|
D--777777-77-9999---------------------------------------------------------
A--777777-55-7777--------------------------------------------------------|
E--555555----------------------------------------------------------------|


Bridge
E------------------------------------------------------------------------|
B------------------------------------------------------------------------|
G-------9----------------------------------------------------------------|
D-----9-9----------------------------------------------------------------|
A-----9-7----------------------------------------------------------------|
E-----7------------------------------------------------------------------|

(Solo)
During solo:
E------------------------------------------------------------------------|
B------------------------------------------------------------------------|
G----------99--11111111---------99---------------------------------------|X2
D--9999999-99--11111111-9999999-99-777-----------------------------------|
A--9999999-77--9-9-9-9--9999999-77-777-----------------------------------|
E--7777777--------------7777777----555-----------------------------------|


E------------------------------------------------------------------------|
B------------------------------------------------------------------------|
G--777777-77-9999--------77----------------------------------------------|
D--777777-77-9999-777777-77-5555-----------------------------------------|
A--777777-55-7777-777777-55-5555-----------------------------------------|
E--555555---------555555----3333-----------------------------------------|

E------------------------------------------------------------------------|
B------------------------------------------------------------------------|
G--777777-77-9999--------------------------------------------------------|
D--777777-77-9999--------------------------------------------------------|
A--777777-55-7777--------------------------------------------------------|
E--555555----------------------------------------------------------------|

E------------------------------------------------------------------------|
B------------------------------------------------------------------------|
G-------9----------------------------------------------------------------|
D-----9-9----------------------------------------------------------------|
A-----9-7----------------------------------------------------------------|
E-----7------------------------------------------------------------------|

Verse:3
E------------------------------------------------------------------------|
B------------------------------------------------------------------------|
G----------99--11111111---------99---------------------------------------|
D--9999999-99--11111111-9999999-99-777-----------------------------------|X2
A--9999999-77--9-9-9-9--9999999-77-777-----------------------------------|
E--7777777--------------7777777----555-----------------------------------|


Chorus
E------------------------------------------------------------------------|
B------------------------------------------------------------------------|
G--777777-77-9999--------77----------------------------------------------|
D--777777-77-9999-777777-77-5555-----------------------------------------|
A--777777-55-7777-777777-55-5555-----------------------------------------|
E--555555---------555555----3333-----------------------------------------|

E------------------------------------------------------------------------|
B------------------------------------------------------------------------|
G--777777-77-9999--------------------------------------------------------|
D--777777-77-9999--------------------------------------------------------|
A--777777-55-7777--------------------------------------------------------|
E--555555----------------------------------------------------------------|

Bridge
E------------------------------------------------------------------------|
B------------------------------------------------------------------------|
G-------9---9------------------------------------------------------------|
D-----9-9-9-9------------------------------------------------------------|
A-----9-7-9-7------------------------------------------------------------|
E-----7---7--------------------------------------------------------------|
Outro:
E------------------------------------------------------------------------|
B--55-44-------11-99-777777777-5---555555555555---5----------------------|
D--55-44-77-55-11-99-777777777-5---555555555555---5----------------------|
A--33-22-77-55-9--77-555555555-3---333333333333---3----------------------|
E--------55-33-----------------------------------------------------------|
Tap to rate this tab
 
# A B C D E F G H I J K L M N O P Q R S T U V W X Y Z