Song name
# A B C D E F G H I J K L M N O P Q R S T U V W X Y Z

The Celibate Rifles - Lets Get Married tab

Intro 
E------------------------------------------------------------------------|
B------------------------------------------------------------------------|
G------------------------------------------------------------------------|
D---------------1111-99--777777777-555555555-----------------------------|
A-1010-99-55-55--9-9-77--555555555-333333333-----------------------------|
E--8-8-77-77-33----------------------------------------------------------|

Verse:1
E------------------------------------------------------------------------|
B------------------------------------------------------------------------|
G------------------------------------------------------------------------|X3
D-----9999999----99------------------------------------------------------|
A-----7777777-99-77------------------------------------------------------|
E-------------77---------------------------------------------------------|


Chorus
E------------------------------------------------------------------------|
B------------------------------------------------------------------------|
G------------------------------------------------------------------------|
D-----7777777----77-7777777----77-7777777----77---9----------------------|
A-----5555555-77-55-5555555-77-55-5555555-77-55-9-7----------------------|
E-------------55------------55------------55----7------------------------|


Verse:2
E------------------------------------------------------------------------|
B------------------------------------------------------------------------|
G------------------------------------------------------------------------|X3
D-----9999999----99------------------------------------------------------|
A-----7777777-99-77------------------------------------------------------|
E-------------77---------------------------------------------------------|


Chorus
E------------------------------------------------------------------------|
B------------------------------------------------------------------------|
G------------------------------------------------------------------------|
D-----7777777----77-7777777----77-7777777----77---9----------------------|
A-----5555555-77-55-5555555-77-55-5555555-77-55-9-7----------------------|
E-------------55------------55------------55----7------------------------|

(During Solo)
E------------------------------------------------------------------------|
B------------------------------------------------------------------------|
G------------------------------------------------------------------------|X3
D-----9999999----99------------------------------------------------------|
A-----7777777-99-77------------------------------------------------------|
E-------------77---------------------------------------------------------|


E------------------------------------------------------------------------|
B------------------------------------------------------------------------|
G------------------------------------------------------------------------|
D-----7777777----77-7777777----77-7777777----77---9----------------------|
A-----5555555-77-55-5555555-77-55-5555555-77-55-9-7----------------------|
E-------------55------------55------------55----7------------------------|


Verse:2
E------------------------------------------------------------------------|
B------------------------------------------------------------------------|
G------------------------------------------------------------------------|X3
D-----9999999----99------------------------------------------------------|
A-----7777777-99-77------------------------------------------------------|
E-------------77---------------------------------------------------------|


Chorus
E------------------------------------------------------------------------|
B------------------------------------------------------------------------|
G------------------------------------------------------------------------|
D-----7777777----77-7777777----77-7777777----77---9---9------------------|
A-----5555555-77-55-5555555-77-55-5555555-77-55-9-7-9-7------------------|
E-------------55------------55------------55----7---7--------------------|

Outro:
E------------------------------------------------------------------------|
B------------------------------------------------------------------------|
G------------------------------------------------------------------------|
D---------------1111-99--777777777-5----555555---5-----------------------|
A-1010-99-55-55--9-9-77--555555555-3----333333---3-----------------------|
E--8-8-77-77-33----------------------------------------------------------|

Tap to rate this tab
 
# A B C D E F G H I J K L M N O P Q R S T U V W X Y Z