Song name
# A B C D E F G H I J K L M N O P Q R S T U V W X Y Z

The Cells - Silver Cloud tab

easy song, but awesome, here it is

e-------------------|
B-------------------|
G-------------------|
D-6-6-6-6-6---------|    4 times
A-6-6-6-6-6---------|
E-4-4-4-4-4---------|

intro-verse
e--------------------------------------------------------------|
B--------------------------------------------------------------|
G--------------------------------------------------------------|
D-6-6-6-6-6------1010101010------3-3-3-3-3------8-8-8-8-8------|
A-6-6-6-4-4------1010101010------3-3-3-3-3------8-8-8-8-8------|
E-4-4-4-4-4------8-8-8-8-8-------1-1-1-1-1------6-6-6-6-6------|

e--------------------------------------------------------------|
B--------------------------------------------------------------|
G--------------------------------------------------------------|
D-6-6-6-6-6------4-4-4-4-4-------3-3--3-3--3-3--3-3-3-3-3------|
A-6-6-6-6-6------4-4-4-4-4-------3-3--3-3--3-3--3-3-3-3-3------|
E-4-4-4-4-4------2-2-2-2-2-------1-1--1-1--1-1--1-1-1-1-1------|

                       or however the strumming goes
Tap to rate this tab
 
# A B C D E F G H I J K L M N O P Q R S T U V W X Y Z