Song name
# A B C D E F G H I J K L M N O P Q R S T U V W X Y Z

The Cells - She Robot tab

Song: "She Robot"
Band: "The Cells"
Album: "We Can Replace You"
Genre: Mock 70s/Grunge/Alternative

Questions or corrections please send to me at theownage3262@gmail.com


Tuning: Standard E tuning

e|-------------------------------------------------------|
B|-------------------------------------------------------|
G|----------44--77---------------------------------------|
D|--44--22--44--77---------------------------------------|
A|--44--22--22--55---------------------------------------|
E|--22--00-----------------------------------------------|

e|-------------------------------------------------------|
B|-------------------------------------------------------|
G|------66--------------44--77---------------------------|
D|------66--77--44--22--44--77---------------------------|
A|------44--77--44--22--22--55---------------------------|
E|----------55--22--00-----------------------------------|

Very simplistic but awesome song.
I got it off of their MySpace.
http://www.myspace.com/thecells

In fact you can even message me on MySpace if you have any
questions or corrections about this song.
Tap to rate this tab
# A B C D E F G H I J K L M N O P Q R S T U V W X Y Z