Song name
# A B C D E F G H I J K L M N O P Q R S T U V W X Y Z

The Centurions - Intoxica tab

Intoxica - The Centurians (formerly The Centurions)


         E                  E
e -----------------|-----------------|
B -----------------|-----------------|
G -----------------|-----------------|    2x
D -----0-2-4-2-0---|-----0-2-0---0---|
A ---2-----------2-|---2-------2---2-|
E -0---------------|-0---------------|

        A               E                B
e -----------------|-------------------|-----------------|
B -----------------|-------------------|-----------------|
G -----0-2-4-2-0---|-------------------|---2-4-2-0---0---|
D ---2-----------2-|-----0-2-4-2-0-----|-4---------2---2-|
A -0---------------|---2-----------2-2-|-----------------|
E -----------------|-0-----------------|-----------------|

        Em
e -------------------|---------------------------------|
B -------------------|---0---0---0---0---0---0---0---0-|
G -------------------|-9---8---7---6---5---4---3---2---|
D -------------------|---------------------------------|
A -2-2-0-0-----------|---------------------------------|
E ---------3-3-2-2-0-|---------------------------------|

          E                 E
e -----------------|-----------------|
B -----------------|-----------------|
G -----------------|-----------------|
D -----0-2-4-2-0---|-----0-2-0---0---|
A ---2-----------2-|---2-------2---2-|
E -0---------------|-0---------------|

         A              E                B
e -----------------|-------------------|-----------------|
B -----------------|-------------------|-----------------|
G -----0-2-4-2-0---|-------------------|---2-4-2-0---0---|
D ---2-----------2-|-----0-2-4-2-0-----|-4---------2---2-|
A -0---------------|---2-----------2-2-|-----------------|
E -----------------|-0-----------------|-----------------|

          Em
e -------------------|
B -------------------|
G -------------------|
D -------------------|
A -2-2-0-0-----------|
E ---------3-3-2-2-0-|

         A                        E
e -------------------------|-------------------------|
B -------------------------|-------------------------|
G -2-0-2-0-----2-0-2-0-----|-------------------------|
D ---------2-0---------2-0-|-2-0-2-0-----2-0-2-0-----|
A -------------------------|---------2-0---------2-0-|
E -------------------------|-------------------------|


        A
e -------------------------|
B -------------------------|
G -2-0-2-0-----2-0-2-0-----|
D ---------2-0---------2-0-|
A -------------------------|
E -------------------------|

          Em
e -------------------|---------------------------------|
B -------------------|---0---0---0---0---0---0---0---0-|
G -------------------|-9---8---7---6---5---4---3---2---|
D -------------------|---------------------------------|
A -2-2-0-0-----------|---------------------------------|
E ---------3-3-2-2-0-|---------------------------------|

          E                 E
e -----------------|-----------------|
B -----------------|-----------------|
G -----------------|-----------------|
D -----0-2-4-2-0---|-----0-2-0---0---|
A ---2-----------2-|---2-------2---2-|
E -0---------------|-0---------------|

         A              E                B
e -----------------|-------------------|-----------------|
B -----------------|-------------------|-----------------|
G -----0-2-4-2-0---|-------------------|---2-4-2-0---0---|
D ---2-----------2-|-----0-2-4-2-0-----|-4---------2---2-|
A -0---------------|---2-----------2-2-|-----------------|
E -----------------|-0-----------------|-----------------|

          Em
e -------------------|
B -------------------|
G -------------------|
D -------------------|
A -2-2-0-0-----------|
E ---------3-3-2-2-0-|

         A                        E
e -------------------------|-------------------------|
B -------------------------|-------------------------|
G -2-0-2-0-----2-0-2-0-----|-------------------------|
D ---------2-0---------2-0-|-2-0-2-0-----2-0-2-0-----|
A -------------------------|---------2-0---------2-0-|
E -------------------------|-------------------------|

           A
e -------------------------|
B -------------------------|
G -2-0-2-0-----2-0-2-0-----|
D ---------2-0---------2-0-|
A -------------------------|
E -------------------------|

          Em
e -------------------|---------------------------------|
B -------------------|---0---0---0---0---0---0---0---0-|
G -------------------|-9---8---7---6---5---4---3---2---|
D -------------------|---------------------------------|
A -2-2-0-0-----------|---------------------------------|
E ---------3-3-2-2-0-|---------------------------------|

          E                 E
e -----------------|-----------------|
B -----------------|-----------------|
G -----------------|-----------------|
D -----0-2-4-2-0---|-----0-2-0---0---|
A ---2-----------2-|---2-------2---2-|
E -0---------------|-0---------------|

         A              E                B
e -----------------|-------------------|-----------------|
B -----------------|-------------------|-----------------|
G -----0-2-4-2-0---|-------------------|---2-4-2-0---0---|
D ---2-----------2-|-----0-2-4-2-0-----|-4---------2---2-|
A -0---------------|---2-----------2-2-|-----------------|
E -----------------|-0-----------------|-----------------|

          Em
e -------------------|
B -------------------|
G -------------------|
D -------------------|
A -2-2-0-0-----------|
E ---------3-3-2-2-0-|
Tap to rate this tab
 
# A B C D E F G H I J K L M N O P Q R S T U V W X Y Z