Song name
# A B C D E F G H I J K L M N O P Q R S T U V W X Y Z

The Chameleons - Here Today tab

Here Today
The Chameleons
Script of the Bridge
--------------------------------------------------
Tune all strings up a whole step

intro

Reg's guitar
|-------------------|
|-------------------|
|-------------------|
|-------------------|
|-----7-------10-10-|
|-0-0---0-8-8-------|

Dave's guitar
|---------0-------0-------0-------12//-------------0-------12//-|
|---------5-5-----5-5-----0-------12//-------5-----0-------12//-|
|-----5---7---7---5---5---4-------12//---------5---4-------12//-|
|-7-------5-----5-5-----5-5----------------------5-5------------|
|---------------------------------------------------------------|
|---------------------------------------------------------------|

"don't know what happened..."

Reg's guitar
|-------------------|
|-------------------|
|-------------------|
|-------------------|
|-----7-------10-10-|
|-0-0---0-8-8-------|

Dave's guitar
|-0-------0-------0-|
|---0-------0-----0-|
|-----2--------2--0-|
|-----------------2-|
|-------------------|
|-------------------|

"there's blood on my shirt..."

Reg's guitar
|------------------------------------------------------------------|
|------------------------------------------------------------------|
|------------------------------------------------------------------|
|-7-7-7-7-7-7-7-7-7-7----------------------------------------------|
|---------------------10-9-10-9-7---7-------10-10----7-------10-10-|
|---------------------------------0---0-8-8--------0---0-8-8-------|

Dave's guitar
|-----------------------------------------------|
|---------------------------------0-----0-------|
|-2-2-2-2-2-2-2-2-2-2-0---0---------0-----0-----|
|-----------------------4---4--2------2------2--|
|-----------------------------------------------|
|-----------------------------------------------|

repea intro, verse, and chorus

bridge

Reg's guitar
|---------------------------------------------------------|
|---------------------------------------------------------|
|---------------------------------------------------------|
|-3-3-3-3-5-5-5-5-7-7-------------------------------------|
|-1-1-1-1-3-3-3-3-5-5-----7-------10-10-----7-------10-10-|
|---------------------0-0---0-8-8-------0-0---0-8-8-------|

Dave's guitar
|---------------------0-----0-----|
|---------------------0-------0---|
|---------------------0---------0-|
|-3-3-3-3-5-5-5-5-7-7-2-----------|
|-1-1-1-1-3-3-3-3-5-5-------------|
|---------------------------------|

break

Reg's guitar
|-------------------------------------0-----12//-|
|-------------------------------------0-----12//-|
|--0-------0-------0-------0-------0--4-----12//-|
|----4-0-2---4-0-2---4-0-2---4-0-2----5----------|
|------------------------------------------------|
|------------------------------------------------|

Dave's guitar
|------------------------------------------------------------------------|
|------------------------------------------------------------------------|
|--0-------0-------0-------0-------0-------------------------------------|
|------0-------0------0------4-0-2---------------------------------------|
|----------------------------------------7-------10-10-----7-------10-10-|
|------------------------------------0-0---0-8-8-------0-0---0-8-8-------|

repeat verse, chorus, bridge, and verse

outro

Reg plays just an E-note

Dave's guitar (harmonics)
|-<12>----<7>-|
|-<12>----<7>-|
|-<12>----<7>-|
|-<12>----<7>-|
|-<12>----<7>-|
|-<12>----<7>-|

--------------------------------------------------
Tabbed by: Klaus Hurskainen
klaus.hurskainen@elisanet.fi
Tap to rate this tab
 
# A B C D E F G H I J K L M N O P Q R S T U V W X Y Z