Song name
# A B C D E F G H I J K L M N O P Q R S T U V W X Y Z

The Chameleons - Dont Fall tab

Don't Fall - Script of the bridge (1983)

Intro

Reg's guitar (overdriven guitar)

F#|--------------------------------------------------------------------|
C#|--------------------------------------------------------------------|
 A|--------------------------------------------------------------------|(X4)
 E|-----------------------------3-2~-----------------------------3-2~--|
 B|-------------------------3-2------------------------------3-2-------|
F#|-0-0-0-0-3-3-3-3-2-2-2-2----------0-0-0-0-3-3-3-3-2-2-2-2-----------|

Dave's guitar (chorus/delay guitar)

F#|-0~~~~----||-0~~~~----|          
C#|-0~~~~----||-0~~~~----|         
 A|-1~~~~----||-1~~~~----|(3rd time)
 E|-2~~~~----||-2~~~~----|         
 B|-2~~~~----||-2~~~~----|          
F#|-0~~~~----||-0~~~~----|

Verse

Reg

F#|--------------------------------------------------------------------|
C#|--------------------------------------------------------------------|
 A|--------------------------------------------------------------------|
 E|-----------------------------3-2~-----------------------------3-2~--|
 B|-------------------------3-2------------------------------3-2-------|
F#|-0-0-0-0-3-3-3-3-2-2-2-2----------0-0-0-0-3-3-3-3-2-2-2-2-----------|

Dave(low volume)

F#|-0-0-0-0-0-0-0-0-0-0-0-0-0-0-0--0~--0-0-0-0-0-0-0-0-0-0-0-0-0-0|
C#|-0-0-0-0-0-0-0-0-0-0-0-0-0-0-0--0~--0-0-0-0-0-0-0-0-0-0-0-0-0-0|
 A|-1-1-1-1-4-4-4-4-3-3-3-3-2-2-2--1~--0-0-0-0-0-0-0-0-0-0-0-0-0-0|
 E|-2-2-2-2-5-5-5-5-4-4-4-4-3-3-3--2~--2-2-2-5-5-5-5-4-4-4-4-3-3-3|
 B|-2-2-2-2-5-5-5-5-4-4-4-4-3-3-3--2~--2-2-2-5-5-5-5-4-4-4-4-3-3-3|
F#|-0-0-0-0-0-0-0-0-0-0-0-0-0-0-0--0~--0-0-0-0-0-0-0-0-0-0-0-0-0-0|

Pre chorus

Reg

F#|-0-0-0-0-0-0-0-0-0-0-0-0-0-0-0--0~--0-0-0-0-0-0-0-0-0-0-0-0-0-0|
C#|-0-0-0-0-0-0-0-0-0-0-0-0-0-0-0--0~--0-0-0-0-0-0-0-0-0-0-0-0-0-0|
 A|-1-1-1-1-4-4-4-4-3-3-3-3-2-2-2--1~--1-1-1-4-4-4-4-3-3-3-3-2-2-2|
 E|-2-2-2-2-5-5-5-5-4-4-4-4-3-3-3--2~--2-2-2-5-5-5-5-4-4-4-4-3-3-3|
 B|-2-2-2-2-5-5-5-5-4-4-4-4-3-3-3--2~--2-2-2-5-5-5-5-4-4-4-4-3-3-3|
F#|-0-0-0-0-0-0-0-0-0-0-0-0-0-0-0--0~--0-0-0-0-0-0-0-0-0-0-0-0-0-0|

Dave

F#|-0-0-0-0-0-0-0-0-0-0-0-0-0-0-0--0~--0-0-0-0-0-0-0-0-0-0-0-0-0-0|
C#|-0-0-0-0-0-0-0-0-0-0-0-0-0-0-0--0~--0-0-0-0-0-0-0-0-0-0-0-0-0-0|
 A|-1-1-1-1-4-4-4-4-3-3-3-3-2-2-2--1~--1-1-1-4-4-4-4-3-3-3-3-2-2-2|
 E|-2-2-2-2-5-5-5-5-4-4-4-4-3-3-3--2~--2-2-2-5-5-5-5-4-4-4-4-3-3-3|
 B|-2-2-2-2-5-5-5-5-4-4-4-4-3-3-3--2~--2-2-2-5-5-5-5-4-4-4-4-3-3-3|
F#|-0-0-0-0-0-0-0-0-0-0-0-0-0-0-0--0~--0-0-0-0-0-0-0-0-0-0-0-0-0-0|

Chorus

Reg

F#|-------------------------|
C#|-------------------------|
 A|-5-5~--14-14\12-12--7-7--|
 E|-5-5~---------------7-7--|
 B|-3-3~--12-12\10-10--5-5--|
F#|-------------------------|

Dave

F#|---------------------|
C#|---------------------|
 A|-5-5~-4-4--7-7--4-4--|
 E|-5-5~-4-4--7-7--4-4--|
 B|-3-3~-2-2--5-5--2-2--|
F#|---------------------|

Break

Reg

F#|---------------------------------------------------------------------------------|
C#|---------------------------------------------------------------------------------|
 A|-5-5-5-5-5-5-5-5-12-12-12-12-12-12-12-12-14-14-14-14-14-14-14-14-7-7-7-7-7-7-7-7-|
 E|-5-5-5-5-5-5-5-5-12-12-12-12-12-12-12-12-14-14-14-14-14-14-14-14-7-7-7-7-7-7-7-7-|
 B|-3-3-3-3-3-3-3-3-10-10-10-10-10-10-10-10-12-12-12-12-12-12-12-12-5-5-5-5-5-5-5-5-|
F#|---------------------------------------------------------------------------------|

Dave

F#|-----------------------------------------------------------------|
C#|-----------------------------------------------------------------|
 A|-7-7-7-7-7-7-7-7-9-9-9-9-9-9-9-9-12-12-12-12-11-11-11-11-9-9-9-9-|
 E|-----------------------------------------------------------------|
 B|-5-5-5-5-5-5-5-5-7-7-7-7-7-7-7-7-10-10-10-10--9--9--9--9-7-7-7-7-|
F#|-----------------------------------------------------------------|

Any correction send me an e-mail: bizkornotem@hotmail.com
Tap to rate this tab
# A B C D E F G H I J K L M N O P Q R S T U V W X Y Z