Song name
# A B C D E F G H I J K L M N O P Q R S T U V W X Y Z

The Chameleons - In Shreds tab

In Shreds - What does anything mean? Basically

Intro/Main Riff

Reg (overdriven guitar)

F#|---------------------------------|
C#|---------------------------------|
 A|---------------------------------|
 E|-------7-7-7---------------------|
 B|-------------7-7-----------------|
F#|-5-5-5-----------7-7-7-8-8-8-7-7-|

Dave (chorus/delay guitar)

F#|---------------------------------|
C#|---------------------------------|
 A|---------------------------------|
 E|-------7-7-7---------------------|
 B|-------------7-7-----------------|
F#|-5-5-5-----------7-7-7-8-8-8-7-7-|

Verse

Reg

F#|---------------------------------|
C#|---------------------------------|
 A|---------------------------------|
 E|-------7-7-7---------------------|
 B|-------------7-7-----------------|
F#|-5-5-5-----------7-7-7-8-8-8-7-7-|

Dave

F#|---3---------3---------3---------3-------|
C#|-5---5-----5---5-----5---5-----5---5-----|
 A|-------5~--------5~--------5~--------5~--|
 E|-----------------------------------------|
 B|-----------------------------------------|
F#|-----------------------------------------|

Verse 2nd part

Reg

F#|---------------------------------------------------------------------------------|
C#|---------------------------------------------------------------------------------|
 A|---------------------------------------------------------------------------------|
 E|-7-7-7-7-7-7-7-7-9-9-9-9-9-9-9-9-10-10-10-10-10-10-10-10-12-12-12-12-12-12-12-12-|
 B|---------------------------------------------------------------------------------|
F#|-5-5-5-5-5-5-5-5-7-7-7-7-7-7-7-7--8--8--8--8--8--8--8--8-10-10-10-10-10-10-10-10-|

F#|-----------------------------------------------------------------------------------------|
C#|-----------------------------------------------------------------------------------------|
 A|-9-9-9-9-9-9-9-9-12-12-12-12-12-12-12-12-14-14-14-14-14-14-14-14-16-16-16-16-16-16-16-16-|
 E|-----------------------------------------------------------------------------------------|
 B|-7-7-7-7-7-7-7-7-10-10-10-10-10-10-10-10-12-12-12-12-12-12-12-12-14-14-14-14-14-14-14-14-|
F#|-----------------------------------------------------------------------------------------|

Dave

F#|-----------------------------------------------------------------|
C#|-----------------------------------------------------------------|
 A|-----------------------------------------------------------------|
 E|-7-7-7-7-7-7-7-7-5-5-5-5-5-5-5-5-2-2-2-2-2-2-2-2-5-5-5-5-5-5-5-5-|
 B|---------------------------------2-2-2-2-2-2-2-2-----------------|
F#|-5-5-5-5-5-5-5-5-3-3-3-3-3-3-3-3-0-0-0-0-0-0-0-0-3-3-3-3-3-3-3-3-|

F#|---------------------------------------------------------------------------------|
C#|---------------------------------------------------------------------------------|
 A|---------------------------------------------------------------------------------|
 E|-7-7-7-7-7-7-7-7-9-9-9-9-9-9-9-9-10-10-10-10-10-10-10-10-12-12-12-12-12-12-12-12-|
 B|---------------------------------------------------------------------------------|
F#|-5-5-5-5-5-5-5-5-7-7-7-7-7-7-7-7--8--8--8--8--8--8--8--8-10-10-10-10-10-10-10-10-|

Verse

Chorus

Reg

F#|-----------x-x-7~-|
C#|-----------x-x-7~-|
 A|-----------x-x-7~-|
 E|-----------x-x-7~-|
 B|-----------x-x-7~-|
F#|-0-0-7-0-6-x-x-7~-|

Dave

F#|------------|
C#|------------|
 A|------------|
 E|------------|
 B|------------|
F#|-0-0-7-0-6~-|

Verse

Reg

F#|---------------------------------|
C#|---------------------------------|
 A|---------------------------------|
 E|-------7-7-7---------------------|
 B|-------------7-7-----------------|
F#|-5-5-5-----------7-7-7-8-8-8-7-7-|

Dave

F#|---------------------------------------------------------------------------------|
C#|---------------------------------------------------------------------------------|
 A|---------------------------------------------------------------------------------|
 E|-7-7-7-7-7-7-7-7-9-9-9-9-9-9-9-9-10-10-10-10-10-10-10-10-12-12-12-12-12-12-12-12-|
 B|---------------------------------------------------------------------------------|
F#|-5-5-5-5-5-5-5-5-7-7-7-7-7-7-7-7--8--8--8--8--8--8--8--8-10-10-10-10-10-10-10-10-|

Verse 2nd part

Chorus

Post-Chorus

Reg

F#|---------------------------------------------------------------------------------|
C#|---------------------------------------------------------------------------------|
 A|---------------------------------------------------------------------------------|
 E|-7-7-7-7-7-7-7-7-9-9-9-9-9-9-9-9-10-10-10-10-10-10-14-14-12-12-12-12-12-12-12-12-|
 B|---------------------------------------------------------------------------------|
F#|-5-5-5-5-5-5-5-5-7-7-7-7-7-7-7-7--8--8--8--8--8--8-12-12-10-10-10-10-10-10-10-10-|

Dave

F#|---------------------------------------------------------------------------------|
C#|---------------------------------------------------------------------------------|
 A|---------------------------------------------------------------------------------|
 E|-7-7-7-7-7-7-7-7-9-9-9-9-9-9-9-9-10-10-10-10-10-10-14-14-12-12-12-12-12-12-12-12-|
 B|---------------------------------------------------------------------------------|
F#|-5-5-5-5-5-5-5-5-7-7-7-7-7-7-7-7--8--8--8--8--8--8-12-12-10-10-10-10-10-10-10-10-|

Chorus

Final Part

Reg

F#|-----------x-x-7~-|
C#|-----------x-x-7~-|
 A|-----------x-x-7~-|
 E|-----------x-x-7~-|
 B|-----------x-x-7~-|
F#|-0-0-7-0-6-x-x-7~-|

Dave

F#|-0~~~-|
C#|-0~~~-|
 A|-0~~~-|
 E|-0~~~-|
 B|-0~~~-|
F#|-0~~~-|

Any corrections send me an e-mail: bizkornotem@hotmail.com
Tap to rate this tab
# A B C D E F G H I J K L M N O P Q R S T U V W X Y Z