Song name
# A B C D E F G H I J K L M N O P Q R S T U V W X Y Z

The Chameleons - Pleasure And Pain tab

Pleasure and Pain - Script of the bridge
Here comes one of my favorite songs from this album, so i hope you enjoy it
Delay Set: Level: 100/100 Feedback-80/100 Delay times-330ms

Reg (overdriven guitar)-palm muted

F#|------------------------------------------------------------------|
C#|------------------------------------------------------------------|
 A|------------------------------------------------------------------|
 E|-----2-----2---------2-----2---------2-----2---------2-----2------|
 B|---2---2-3---3-2---2---2-3---3-2---2---2-3---3-2---2---2-3---3-2--|
F#|-0---------------0---------------0---------------0----------------|

Dave (chorus and delay)

F#|---------------------------------||-2-2-2~------0~--|
C#|---------------10~---------------||-3-3-3~-----0~---|
 A|-9~----9-11-12-----12-11-9-------||-2-2-2~----0~----|
 E|---------------------------12-9~-||-0-0-0~---2~-----|
 B|---------------------------------||---------2-------|
F#|---------------------------------||---------0-------|

Verse

Reg

F#|------------------------------------------------------------------|
C#|------------------------------------------------------------------|
 A|------------------------------------------------------------------|
 E|-----2-----2---------2-----2---------2-----2---------2-----2------|
 B|---2---2-3---3-2---2---2-3---3-2---2---2-3---3-2---2---2-3---3-2--|
F#|-0---------------0---------------0---------------0----------------|

Dave

F#|-----0~---------|
C#|----0~-------0~-|
 A|---0~-----------|
 E|--2~----0-2~----|
 B|-2--------------|
F#|-0--------------|

Mark

 A|-----------------|
 E|-----------------|
 B|-----7-----------|
F#|-0-0---0-8-8-8-7-|

Chorus

Reg

F#|---------------------------------||--------------------|
C#|---------------------------------||--------------------|
 A|-5-5-5-5-5-5-5-x-7-7-7-7-7-7-7-x-||-5-5-5-5-5-5-5------|
 E|-5-5-5-5-5-5-5-x-7-7-7-7-7-7-7-x-||-5-5-5-5-5-5-5------|
 B|-3-3-3-3-3-3-3-x-5-5-5-5-5-5-5-x-||-3-3-3-3-3-3-3/5b7~-|
F#|---------------------------------||--------------------|

Dave

F#|----0~-----0~----0~-----------0---|
C#|----1~-----3~----1~--------3~--0~-|
 A|---0~-----0~----0~-----0----------|
 E|--2~-----0~----2~--------2--------|
 B|-3~-----------3~-----0------------|
F#|--------3~------------------------|

Mark

 A|-----------------------------------------|
 E|-----------------------------------------|
 B|-----------------10-10-10-10-10-10-10-10-|
F#|-8-8-8-8-8-8-8-8-------------------------|

 A|---------------------------------||--------------------|
 E|---------------------------------||--------------------|
 B|---------------------------------||--------------------|
F#|-8-8-8-8-8-8-8-8-3-3-3-3-3-3-3-3-||-8-8-8-8-8-8-8-8-7~-|

Post-Chorus

Reg

F#|------------------------------------------------------------------|
C#|------------------------------------------------------------------|
 A|------------------------------------------------------------------|
 E|-----2-----2---------2-----2---------2-----2---------2-----2------|
 B|---2---2-3---3-2---2---2-3---3-2---2---2-3---3-2---2---2-3---3-2--|
F#|-0---------------0---------------0---------------0----------------|

Dave

F#|---------------------------------||----------------------------------|
C#|---------------10~---------------||---------------10~---------15-12~-|
 A|-9~----9-11-12-----12-11-9-------||-9~----9-11-12-----12-11-9--------|
 E|---------------------------12-9~-||----------------------------------|
 B|---------------------------------||----------------------------------|
F#|---------------------------------||----------------------------------|

Reg

F#|----------------------------------------------|
C#|----------------------------------------------|
 A|----------------------------------------------|
 E|-----2-----2------2-----2------2-----2--------|
 B|---2---2-3---3-2~---2-3---3-2~---2-3---3-2~---|
F#|-0-------------0~-----------0~-----------0~---|

Dave

F#|-2-2-2~------0~-------|
C#|-3-3-3~-----0~--2~-0~-|
 A|-2-2-2~----0~---------|
 E|-0-0-0~---2~----------|
 B|---------2------------|
F#|---------0------------|

Verse-just bass

Mark

 A|-----------------|
 E|-----------------|
 B|-----7-----------|
F#|-0-0---0-8-8-8-7-|

Chorus Again

Break

Chorus once again

Dave

F#|---------------------------------------------------------0-----|
C#|-1-1-1-1-1-1-1-1-3-3-3-3-1-1-1-1-0-0-0-0-0-0-0-0-------3---0~--|
 A|-0-0-0-0-0-0-0-0-0-0-0-0-0-0-0-0-0-0-0-0-0-0-0-0-0---0---------|
 E|-2-2-2-2-2-2-2-2-2-2-2-2-2-2-2-2-2-2-2-2-2-2-2-2---2-----------|
 B|-3-3-3-3-3-3-3-3-3-3-3-3-3-3-3-3-2-2-2-2-2-2-2-2---------------|
F#|---------------------------------------------------------------|

Reg-at the end of the other riff

F#|-12~----|
C#|----12~-|
 A|--------|
 E|--------|
 B|--------|
F#|--------|

Final Part

Dave

F#|--------------------------------------|
C#|---0~----0-----2---2-3~--------3-0~--0|
 A|-----------------4-----2-0~--0-----0--|
 E|-2-----2---0-4-------------4----------|
 B|--------------------------------------|
F#|--------------------------------------|

Reg

F#|--------------------------------------|
C#|-----------------------------------3~-|
 A|---2---2---2---2---2---2---2---2------|
 E|-0---0---0---0---0---0---0---0---0----|
 B|--------------------------------------|
F#|--------------------------------------|

Mark

 A|---4---4---4---4---6---6---6---6-------------------7---7---7---7-|
 E|-2---2---2---2---4---4---4---4-----7---7---7---7-5---5---5---5---|
 B|---------------------------------5---5---5---5-------------------|
F#|-----------------------------------------------------------------|


last note

Dave

F#|--------|
C#|-3~--0~-|
 A|-0~--0~-|
 E|-0~--0~-|
 B|--------|
F#|--------|

Reg

F#|--------|
C#|--------|
 A|-7~-----|
 E|-7~-----|
 B|-5~-----|
F#|--------|

Mark

 A|-7~-----|
 E|-5~-----|
 B|--------|
F#|--------|

Any correction send me and e-mail: bizkornotem@hotmail.com
Tap to rate this tab
 
# A B C D E F G H I J K L M N O P Q R S T U V W X Y Z