Song name
# A B C D E F G H I J K L M N O P Q R S T U V W X Y Z

The Chameleons - Less Than Human tab

The Chameleons - Less Than Human
Album : Strange Times

This is my first tab so forgive me if it's not 100% accurate
sounds close to me, and looks like the same way Mark Burgess played it live.
Submitted by Murudoke
-------------------------------------------------------

Tune all strings up a whole step from standard

F#:----------------------------------------|
C#:----3---3---3---3---2---0---3---0-------|
A :-----2---2---2---2---3---3---5---5------|
E :------3---3---3---3---4---4---5---5-----|
B :----------------------------------------|
F#:----------------------------------------|

F#:----------------------------------------|
C#:----3---3---3---3---2---0---3---0-------|
A :-----2---2---2---2---3---3---5---5------|
E :------3---3---3---3---4---4---5---5-----|
B :----------------------------------------|
F#:----------------------------------------|

This riff repeats throughout the entire song
Tap to rate this tab
# A B C D E F G H I J K L M N O P Q R S T U V W X Y Z