Song name
# A B C D E F G H I J K L M N O P Q R S T U V W X Y Z

The Chameleons - Intrigue In Tangiers tab

"Intrigue in Tangiers"
What does anything mean? basically (1985)
The Chameleons

This version is not exactly as the way reg plays but it sounds the same to me so yours i hope
enjoy it

Intro 

Reg (chorus guitar)

F#|------------------------------------|
C#|------------------------------------|
 A|-------0----------------0-----------|
 E|---0-------0---0---0---------0----0-|
 B|-----9---9---9-------10---10---10---|
F#|-7---------------8------------------|

Dave (chorus/delay guitar)

F#|-----------------|
C#|-------10~-------|
 A|-7~-9~-----------|
 E|-----------7~-9~-|
 B|-----------------|
F#|-----------------|

Verse

Reg (overdriven guitar)

F#|---------------------------|
C#|---------------------------|
 A|---------------------------|
 E|-2-2--4--5--4------4--5--4-|
 B|--------------5-5----------|
F#|---------------------------|

Dave

F#|-----0~----------0-0-0-----0~--3-----2-------|
C#|----0~--3-3-3-3--2-2-2----0~-----3-----3-----|
 A|---0~---0-0-0-0--2-2-2---0~--------2-----2---|
 E|--2~----0-0-0-0---------2~-------------------|
 B|-2~--------------------2~--------------------|
F#|---------------------------------------------|


F#|---------------------------------|
C#|---------------------------------|
 A|-0-0-0-0-0-0-0-0-0-0-0-0-0-0-0-0-|
 E|-2-2-4-4-5-5-4-4-5-5-4-4-5-5-4-4-|
 B|---------------------------------|
F#|---------------------------------|

Verse 2nd part

Reg (chorus guitar)

F#|------------------------------------|
C#|------------------------------------|
 A|-------0----------------0-----------|
 E|---0-------0---0---0---------0----0-|
 B|-----9---9---9-------10---10---10---|
F#|-7---------------8------------------|

Dave

F#|---------------------------|
C#|---------------------------|
 A|----------0~-----------0~--|
 E|-------4------------5------|
 B|-2-2-2-------3-3-3---------|
F#|---------------------------|


Chorus

Reg (overdriven guitar)

F#|---------------------------|
C#|---------------------------|
 A|---------------------------|
 E|-2-2--4--5--4------4--5--4-|
 B|--------------5-5----------|
F#|---------------------------|

Dave

F#|---------------------------------||----------3-----2-----|
C#|---------------------------------||------------3-----3---|
 A|-0-0-0~--0-0-0~--0-0-0~--0-0-0~--||--------------2-----2-|
 E|-2-2-2~--5-5-5~--4-4-4~--5-5-5~--||----0~-2~-------------|
 B|---------------------------------||----------------------|
F#|---------------------------------||-0~-------------------|

Break

Reg (chorus guitar)

F#|---------------------------|
C#|---------------------------|
 A|-----0-----0------0-----0--|
 E|---------0------------0----|
 B|---9-----------10----------|
F#|-7-----7-----8------8------|

Dave

F#|--------------------2--|
C#|----0~----1~----0~--3--|
 A|---0~----0~----0~---2--|
 E|--2~----2~----2~-------|
 B|-2~----3~----2~--------|
F#|-----------------------|


Final Part

Reg

F#|-------------------------------------------------|
C#|-------------------------------------------------|
 A|-------0-----------0-----------0-----------0-----|
 E|---0-------0---0-------0---0-------0---0-------0-|
 B|-----7---7-------7---7-------7---7-------7---7---|
F#|-5-----------5-----------0-----------0-----------|

Dave

F#|------------------------------|
C#|-12~--13~--15~----------------|
 A|----------------12~-----------|
 E|---------------------14~--12~-|
 B|------------------------------|
F#|------------------------------|


F#|---------------------------|
C#|------1-0------0~--------0-|
 A|---2~-----0---0~--0----0---|
 E|--2~---------2~------2-----|
 B|-0~---------2~-------------|
F#|---------------------------|
Tap to rate this tab
 
# A B C D E F G H I J K L M N O P Q R S T U V W X Y Z