Song name
# A B C D E F G H I J K L M N O P Q R S T U V W X Y Z

The Chameleons - Intrigue In Tangiers tab

INTRIGUE IN TANGIERS
The Chameleons
-------------------------------------------------------------------------------
Tabbed by: Klaus Hurskainen
Email: klaus.hurskainen@elisanet.fi

Tuning: Standard (EADGBe)

This tab is based on the acoustic version from
"This Never Ending Now".

INTRO (REG'S GUITAR):
e|-----------------------------------------------|
B|-----------------------------------------------|
G|-----------0-----------------------0--------0--|  X6
D|--------4-----4-----4-----------7-----7--------|
A|-----5-----------5-----5-----5-----------5-----|
E|--7-----------------------8--------------------|

DAVE'S MELODY:
e|--------------------------|
B|-------------10-----------|
G|--7---9-7-----------------|   X2
D|------------------7----9--|
A|--------------------------|
E|--------------------------|

Em, G, D
"When it's summer and the skies are glass..."

Bm, C
"Or sit for hours with fading powers by a television screen..."

e|----------------------------------------|
B|----------------------------------------|
G|-----------0------------------0---------|
D|--------4------------------7------------|
A|-----5----------5-------5----------5----|
E|--7----------------7-8---------------8--|

Em, C, D
"What can you do when you see no future in front of you?.."

Am, Em
"Until you sleep..."

DAVE PLAYS THIS MELODY:
e|--7--8--10-----------7--8--10---------------|
B|------------8------------------8------------|
G|---------------9--7---------------7h9--7h9--|	x2
D|--------------------------------------------|
A|--------------------------------------------|
E|--------------------------------------------|

AND THEN THIS:
e|------------------------------|
B|-----1-----0----0-------------|
G|--------2----------0----------|
D|--2-------------------2-------|
A|------------------------------|
E|------------------------------|

ANOTHER GUITAR PLAYS A SORT-OF BASS RUN:
e|------------------------------|
B|------------------------------|
G|------------------------------|
D|------------------------------|
A|--0-----------2-------------2-|
E|----------------0-----0--3----|

That's it. For lyrics go to the official site, thechameleons.com
Tap to rate this tab
# A B C D E F G H I J K L M N O P Q R S T U V W X Y Z