Song name
# A B C D E F G H I J K L M N O P Q R S T U V W X Y Z

The Chameleons - Nathans Phase Acoustic tab

Nathan's Phase (acoustic 'Strip' version)
The Chameleons
----------------------------------------------------------------

Standard tuning

Dave's riff (intro & verses)
|---------------------------|
|-3-----2---3-----2---------|
|---4---------4-------2-----|
|-----4---4-----4---4-----4-|
|---------------------------|
|---------------------------|

Bm         	      F#m
	Of all the faces that we wear
Sometimes joy, sometimes despair
The mask is gone, no mystery
Replaced by fake theology

Dave's riff (chorus) (sometimes an octave higher)
|---------------------------------------------|
|---------------------------------------------|
|---------------------------------------------|
|---------------------------------------------|
|-5---5-5-5-7--7-7--7-7-4---4-4-5-2--2-2--2-2-|
|---------------------------------------------|

G	Em  			A 		Asus4	Bmsus4
		It's just a phase I'm going through
	 G	Em 		A 		 Asus4 			F#7
It's true, it's just a phase I'm going through,
		Bm	F#m
you know

Bm 				F#m
	The streets of London are paved with lead
Just as my lungs are paved with Leb
Wrap the voices in my head
Feels like I'm welded to this bed

G	Em 	               A 		Asus4	  Bmsus4
		 It's just a phase I'm going through
	G	Em 		A 			Asus4		F#7
It's true, it's just a phase I'm going through,
		Bm		F#m		Bm		F#m
you know

BREAK
G	Em 	 A 	Asus4	Bmsus4	G	Em	A	Asus4	F#7
Bm	F#m		Bm	F#m

Dave's riff (break & next verse)
|------14--12--14-|
|-12--------------|
|-----------------|
|-----------------|
|-----------------|
|-----------------|

Bm				F#m
	The streets of London paved with lead
Just as my lungs are paved with Leb
Brush the cobwebs from my head
Feels like I'm welded to this bed

G		Em 			A 		Asus4 		Bmsus4
I'm not dead. It's just a phase I'm going through
And you - you're just a stranger passing through
	   G		Em 		A 		Asus4 		F#7	   Bm    F#m
Out of tune - with this phase I'm going through
You know - it's just a phase I'm going through
You know

Tabbed by: Klaus Hurskainen
klaus.hurskainen@elisanet.fi
----------------------------------------------------------------
Tap to rate this tab
 
# A B C D E F G H I J K L M N O P Q R S T U V W X Y Z