Guitaretab - guitar tabs
Song name
# A B C D E F G H I J K L M N O P Q R S T U V W X Y Z

The Chameleons - Looking Inwardly tab

Artist :The Chameleons
Album : What does anything means basically
Title : Looking inwardly


Tuning = normal

Lot of feedback
E------------------------------------------|
B----4------4------------------------------|
G-------4----------------------------------| 
D----------------4-------------------------|
A------------------------------------------|
D------------------------------------------|

Guitar 1     clean
E-------6------6------6---4-----------6-----6-----6---4----------|
B----7------7------7---------5-----7-----7-----7---------5-------|
G----------------------------------------------------------------| Repeat
D----------------------------------------------------------------|
A----------------------------------------------------------------|
D----------------------------------------------------------------|


Guitar 2  Along the song
E-------2-2---------------2--|
B-----------4---------4------|
G---4---------4-----4---4----|
D---4------------------------|
A---2------------------------|
D----------------------------|
[ Tab from: http://www.guitaretab.com/t/the-chameleons/85310.html ]
Guitar 1
E-------------------------------------------------------------|
B---------7-----7-------7---5---------7-----7-----7---5-------|
G-----7-------7-----7----------5---7-----7------7--------5----|
D-------------------------------------------------------------|
A-------------------------------------------------------------|
D-------------------------------------------------------------|

250
E---------------------------------------------|
B------10------------------10-----------------|
G----------11------------------11-------------|
D---0----------11---12---9---------11-12------|
A-----------------------------------------9---|
D---------------------------------------------|


305
E-----------2----------------2-------------2------------2------|
B-----2--3-----3-------2--3----3-------3-----3------3-----3----|
G---4---------------4----------------2---2--------2---2--------|
D--------------------------------------------------------------|repeat
A--------------------------------------------------------------|
D--------------------------------------------------------------|

At the end repeat alternatively with the above 

E-----------2----------------2---------------2-------------2----|
B-----2--3-----3-------2--3----3-------2-------2------2------2--|
G---4---------------4----------------2-----2--------2----2------|
D---------------------------------------------------------------|
A---------------------------------------------------------------|
D---------------------------------------------------------------|
Related for Looking Inwardly tab