Song name
# A B C D E F G H I J K L M N O P Q R S T U V W X Y Z

The Chameleons - Ps Goodbye tab

Artist :The Chameleons
Album : What does anything means basically
Title : ps goodbye

I am not sure it is exactly the right version
because the bass makes some tone difficult to hear. 
any comment welcome at:cliolaurent@yahoo.fr

Tuning = normal

guitar 1

palm mute
E-----------------------------------------------|
B-----------------------------------------------|
G-----------------------------------------------| 
D-----7--------6----------4-----------4---------|
A----7--7-7--7----7-7-7--4--4-4---0--2---2-2-2--|
D-----------------------------------------------|
Repeat along the song


start  at the middle of the first 
verse of guitar 1

Guitar 2 clean
E----0-----------0------------0-------|
B----------4----------4----------4----|
G-------4----------4----------4-------| 
D-------------------------------------|
A-------------------------------------|
D-------------------------------------|

Repeat along the song

enjoy
Tap to rate this tab
# A B C D E F G H I J K L M N O P Q R S T U V W X Y Z