Song name
# A B C D E F G H I J K L M N O P Q R S T U V W X Y Z

The Chameleons - Lufthansa tab

Band : The Chameleons - 
Album title: why call it anything
song title : lufthansa 


normal tuning

beautiful easy song to play, mainly acoustic guitar 
 
Arpegio


E||---------------|--------------|--------------|---------------|
B||---3---3-------|---4---4------|---3---3------|----3---3------|
G||--3---3---3----|--3---3---3---|--2---2---2---|---2---2---2---|X2
D||-5---5---5-----|-5---5---5----|-3---3---3----|-4----4---4----|
A||---------------|--------------|--------------|---------------|
E||---------------|--------------|--------------|---------------|



E||---------------|--------------|--------------|---------------|
B||---3---3-------|---4---4------|---3---3------|----3---3------|
G||--3---3---3----|--3---3---3---|--2---2---2---|---2---2---2---|
D||-5---5---5-----|-5---5---5----|-3---3---3----|-4----4---4----|
A||---------------|--------------|--------------|---------------|
E||---------------|--------------|--------------|---------------|

time:1'20

E||-3-3-3-3-|-5-5-5-5-|---------|---------|
B||---------|---------|-6-6-6-6-|-3-3-3-3-|
G||---------|---------|---------|---------|
D||---------|---------|---------|---------|x2
A||---------|---------|---------|---------|
E||---------|---------|---------|---------|
                        


E||-----------------|-----------------|
B||-----------------|-3-3-3-3-3-3-3-3-|
G||-5-5-5-5-5-5-5-5-|-----------------|
D||-----------------|-----------------|
A||-----------------|-----------------|
E||-----------------|-----------------|
                        


E||---------------|--------------|--------------|---------------|
B||---3----3------|---4---4------|---3---3------|----3----3-----|
G||--3---3---3----|--3---3---3---|--2---2---2---|---2----2---2--|
D||-5---5---5-----|-5---5---5----|-3---3---3----|-4----4---4----|
A||---------------|--------------|--------------|---------------|
E||---------------|--------------|--------------|---------------|


E||-3-3-3-3-|-5-5-5-5-|---------|---------|
B||---------|---------|-6-6-6-6-|-3-3-3-3-|
G||---------|---------|---------|---------|
D||---------|---------|---------|---------|x2
A||---------|---------|---------|---------|
E||---------|---------|---------|---------|
                        


E||-----------------|-----------------|
B||-----------------|-3-3-3-3-3-3-3-3-|
G||-5-5-5-5-5-5-5-5-|-----------------|
D||-----------------|-----------------|
A||-----------------|-----------------|
E||-----------------|-----------------|

time: 3'35

E||---3---3------|----4---4-----|----3---3-----|---3---3-----|
B||--4---4--4----|---4---4--4---|---3---3---3--|--3---3---3--|
G||-5--5---5-----|--5--5---5----|--3---3---3---|-4--4----4---|X2
D||--------------|--------------|--------------|-------------|
A||--------------|--------------|--------------|-------------|
E||--------------|--------------|--------------|-------------|

time:4'15
"A little rain's going to keep on falling on me ...
E||---------------|--------------|--------------|---------------|
B||---3---3-------|---4---4------|---3---3------|---3----3------|
G||--3---3---3----|--3---3---3---|--2---2---2---|--2----2---2---|
D||-5---5---5-----|-5---5---5----|-3---3---3----|-4----4---4----|
A||---------------|--------------|--------------|---------------|
E||---------------|--------------|--------------|---------------|


E||---3--3-------|----4--4------|----3---3-----|---3--3------|
B||--4--4--4-----|---4--4--4----|---3---3---3--|--3--3----3--|
G||-5--5---5-----|--5--5---5----|--3---3---3---|-4--4----4---|X2
D||--------------|--------------|--------------|-------------|
A||--------------|--------------|--------------|-------------|
E||--------------|--------------|--------------|-------------|

time:5'30

play with delay effect
E||-----------------|-----------------|-----------------|-----------------|
B||-4-4-4-4-4-4-4-4-|-6-6-6-6-6-6-6-6-|-8-8-8-8-8-8-8-8-|-8-8-8-8-8-8-8-8-|
G||-5-5-5-5-5-5-5-5-|-7-7-7-7-7-7-7-7-|-8-8-8-8-8-8-8-8-|-8-8-8-8-8-8-8-8-|X2
D||-----------------|-----------------|-----------------|-----------------|
A||-----------------|-----------------|-----------------|-----------------|
E||-----------------|-----------------|-----------------|-----------------|


Lufthansa (The Chameleons)

I'm in a spin 
I won't let this darkness in 
Turning around 
Grinning as I leave the ground 
Wanting it all 
I'm tearing right through that wall 
Once and for all 
I'm tearing through that wall 
Taking it out

A little rain's going to keep on falling on me 
I'm going to keep on calling to you

I'm in a spin 
Spinning at the speed of sound 
I'm in a spin 
Hanging with the lost and found 
I'm on fire 
rushing on my way to you 
I'm on fire 
Rushing on my way to you 
Checking it out

A little rain's going to keep on falling on me 
I'm going to keep on calling to you

I'm on fire 
Beside you 
I'm on fire

Tap to rate this tab
 
# A B C D E F G H I J K L M N O P Q R S T U V W X Y Z