Song name
# A B C D E F G H I J K L M N O P Q R S T U V W X Y Z

The Changcuters - Maen Serong tab

solo;
|--7-6-5-7-6-5-5--5--5--|)             2x
|--------------6-----6--|)             2x
|-----------------------|
|-----------------------|
|-----------------------|
|-----------------------|

|--9-8-7-9-8-7-7--7--7---|
|--------------8-----8---|
|------------------------|
|------------------------|
|------------------------|
|------------------------|

|--7-6-5-7-6-5-5--5--5---|
|--------------6-----6---|
|------------------------|
|------------------------|
|------------------------|
|------------------------|

|--9-8-7---7-6-5--|
|-----------------|
|-----------------|
|-----------------|
|-----------------|
|-----------------|

more faster
|---7-6-5--7-6-5-7-6-5-7-6-5-6-5-5-|
|--------------------------------6-|
|----------------------------------|
|----------------------------------|
|----------------------------------|
|----------------------------------|
Tap to rate this tab
# A B C D E F G H I J K L M N O P Q R S T U V W X Y Z