Song name
# A B C D E F G H I J K L M N O P Q R S T U V W X Y Z

The Changcuters - Racun Dunia tab

mainkan...

Solo:
E|-----------------------------------------------|
B|------10----------------------------10---------|
G|-9/11----11-9-7-9-7---------7-9-9/11---11-9/7--|
D|--------------------9~--7h9--------------------|
A|-----------------------------------------------|
D|-----------------------------------------------|

E|-----------------------------------------------|
B|-12-10----10-----------------------------------|
G|-------11----11-9~-----------------------------|
D|-----------------------------------------------|
A|-----------------------------------------------|
D|-----------------------------------------------|

E|---------------------------------------------------------------|
B|-12-10---12-10----12-10----12-10----10-------------------------|
G|------11-------11-------11------11----11-9-7-7h9--9b(9)-7h9h9--|
D|---------------------------------------------------------------|
A|---------------------------------------------------------------|
D|---------------------------------------------------------------|

E|-----------------------------------------------|
B|-12-10----10-----------------------------------|
G|-------11----11-9~-----------------------------|
D|-----------------------------------------------|
A|-----------------------------------------------|
D|-----------------------------------------------|
Tap to rate this tab
 
# A B C D E F G H I J K L M N O P Q R S T U V W X Y Z